ISO-10303-21;
HEADER;
FILE_DESCRIPTION(('STEP AP214'),'1');
FILE_NAME('220627_X72205_3D_LLC05V_Commercial.stp','2022-06-27T08:36:21',(' '),(' '),'Spatial InterOp 3D',' ',' ');
FILE_SCHEMA(('AUTOMOTIVE_DESIGN { 1 0 10303 214 1 1 1 1 }'));
ENDSEC;
DATA;
#1=MECHANICAL_DESIGN_GEOMETRIC_PRESENTATION_REPRESENTATION(' ',(#16,#17,#18,#19,#20,#21,#22,#23,#24,#25,#26,#27,#28,#29),#6);
#2=PRODUCT_DEFINITION_CONTEXT('',#30,'design');
#3=APPLICATION_PROTOCOL_DEFINITION('INTERNATIONAL STANDARD','automotive_design',1994,#30);
#4=PRODUCT_CATEGORY_RELATIONSHIP('NONE','NONE',#31,#32);
#5=SHAPE_DEFINITION_REPRESENTATION(#33,#34);
#6= (GEOMETRIC_REPRESENTATION_CONTEXT(3)GLOBAL_UNCERTAINTY_ASSIGNED_CONTEXT((#37))GLOBAL_UNIT_ASSIGNED_CONTEXT((#39,#40,#41))REPRESENTATION_CONTEXT('NONE','WORKSPACE'));
#7=PROPERTY_DEFINITION_REPRESENTATION(#43,#44);
#8=GENERAL_PROPERTY_ASSOCIATION('','',#45,#43);
#9=PROPERTY_DEFINITION_REPRESENTATION(#46,#47);
#10=GENERAL_PROPERTY_ASSOCIATION('','',#48,#46);
#11=PROPERTY_DEFINITION_REPRESENTATION(#49,#50);
#12=GENERAL_PROPERTY_ASSOCIATION('','',#51,#49);
#16=STYLED_ITEM('',(#52),#53);
#17=STYLED_ITEM('',(#54),#55);
#18=STYLED_ITEM('',(#56),#57);
#19=STYLED_ITEM('',(#58),#59);
#20=STYLED_ITEM('',(#60),#61);
#21=STYLED_ITEM('',(#62),#63);
#22=STYLED_ITEM('',(#64),#65);
#23=STYLED_ITEM('',(#66),#67);
#24=STYLED_ITEM('',(#68),#69);
#25=STYLED_ITEM('',(#70),#71);
#26=STYLED_ITEM('',(#72),#73);
#27=STYLED_ITEM('',(#74),#75);
#28=STYLED_ITEM('',(#76),#77);
#29=STYLED_ITEM('',(#78),#79);
#30=APPLICATION_CONTEXT(' ');
#31=PRODUCT_CATEGORY('part','NONE');
#32=PRODUCT_RELATED_PRODUCT_CATEGORY('detail',' ',(#80));
#33=PRODUCT_DEFINITION_SHAPE('NONE','NONE',#81);
#34=ADVANCED_BREP_SHAPE_REPRESENTATION('210627_X72205_3D_LLC05V_Commercial',(#79,#82),#6);
#37=UNCERTAINTY_MEASURE_WITH_UNIT(LENGTH_MEASURE(0.001),#39,'','');
#39= (CONVERSION_BASED_UNIT('MILLIMETRE',#85)LENGTH_UNIT()NAMED_UNIT(#88));
#40= (NAMED_UNIT(#90)PLANE_ANGLE_UNIT()SI_UNIT($,.RADIAN.));
#41= (NAMED_UNIT(#90)SOLID_ANGLE_UNIT()SI_UNIT($,.STERADIAN.));
#43=PROPERTY_DEFINITION('PdmObjectId','',#81);
#44=REPRESENTATION('',(#96),#6);
#45=GENERAL_PROPERTY('','19_cfc4ae55-221c-4372-a2bc-2611e1a9d9ec&35_1_0_7','');
#46=PROPERTY_DEFINITION('CreationDate','',#81);
#47=REPRESENTATION('',(#97),#6);
#48=GENERAL_PROPERTY('','27/06/2022 06:32:32','');
#49=PROPERTY_DEFINITION('Minor Revision','',#81);
#50=REPRESENTATION('',(#98),#6);
#51=GENERAL_PROPERTY('','0','');
#52=PRESENTATION_STYLE_ASSIGNMENT((#99));
#53=ADVANCED_FACE('',(#100,#101),#102,.F.);
#54=PRESENTATION_STYLE_ASSIGNMENT((#103));
#55=ADVANCED_FACE('',(#104,#105),#106,.F.);
#56=PRESENTATION_STYLE_ASSIGNMENT((#107));
#57=ADVANCED_FACE('',(#108,#109),#110,.F.);
#58=PRESENTATION_STYLE_ASSIGNMENT((#111));
#59=ADVANCED_FACE('',(#112,#113),#114,.T.);
#60=PRESENTATION_STYLE_ASSIGNMENT((#115));
#61=ADVANCED_FACE('',(#116,#117),#118,.F.);
#62=PRESENTATION_STYLE_ASSIGNMENT((#119));
#63=ADVANCED_FACE('',(#120,#121),#122,.F.);
#64=PRESENTATION_STYLE_ASSIGNMENT((#123));
#65=ADVANCED_FACE('',(#124,#125),#126,.F.);
#66=PRESENTATION_STYLE_ASSIGNMENT((#127));
#67=ADVANCED_FACE('',(#128),#129,.F.);
#68=PRESENTATION_STYLE_ASSIGNMENT((#130));
#69=ADVANCED_FACE('',(#131),#132,.F.);
#70=PRESENTATION_STYLE_ASSIGNMENT((#133));
#71=ADVANCED_FACE('',(#134,#135),#136,.F.);
#72=PRESENTATION_STYLE_ASSIGNMENT((#137));
#73=ADVANCED_FACE('',(#138),#139,.F.);
#74=PRESENTATION_STYLE_ASSIGNMENT((#140));
#75=ADVANCED_FACE('',(#141,#142),#143,.T.);
#76=PRESENTATION_STYLE_ASSIGNMENT((#144));
#77=ADVANCED_FACE('',(#145,#146),#147,.T.);
#78=PRESENTATION_STYLE_ASSIGNMENT((#148));
#79=MANIFOLD_SOLID_BREP('210627_X72205_3D_LLC05V_Commercial',#149);
#80=PRODUCT('210627_X72205_3D_LLC05V_Commercial','','VERY LARGE BEAM PMMA COLLIMATOR',(#150));
#81=PRODUCT_DEFINITION('','NONE',#151,#2);
#82=AXIS2_PLACEMENT_3D('',#152,#153,#154);
#85=LENGTH_MEASURE_WITH_UNIT(LENGTH_MEASURE(1.0),#155);
#88=DIMENSIONAL_EXPONENTS(1.0,0.0,0.0,0.0,0.0,0.0,0.0);
#90=DIMENSIONAL_EXPONENTS(0.0,0.0,0.0,0.0,0.0,0.0,0.0);
#96=VALUE_REPRESENTATION_ITEM('19_cfc4ae55-221c-4372-a2bc-2611e1a9d9ec&35_1_0_7',);
#97=VALUE_REPRESENTATION_ITEM('27/06/2022 06:32:32',);
#98=VALUE_REPRESENTATION_ITEM('0',);
#99=SURFACE_STYLE_USAGE(.BOTH.,#156);
#100=FACE_BOUND('',#157,.T.);
#101=FACE_OUTER_BOUND('',#158,.T.);
#102=PLANE('',#159);
#103=SURFACE_STYLE_USAGE(.BOTH.,#160);
#104=FACE_OUTER_BOUND('',#161,.T.);
#105=FACE_OUTER_BOUND('',#162,.T.);
#106=SURFACE_OF_REVOLUTION('',#163,#164);
#107=SURFACE_STYLE_USAGE(.BOTH.,#165);
#108=FACE_BOUND('',#166,.T.);
#109=FACE_OUTER_BOUND('',#167,.T.);
#110=PLANE('',#168);
#111=SURFACE_STYLE_USAGE(.BOTH.,#169);
#112=FACE_BOUND('',#170,.T.);
#113=FACE_OUTER_BOUND('',#171,.T.);
#114=PLANE('',#172);
#115=SURFACE_STYLE_USAGE(.BOTH.,#173);
#116=FACE_OUTER_BOUND('',#174,.T.);
#117=FACE_BOUND('',#175,.T.);
#118=PLANE('',#176);
#119=SURFACE_STYLE_USAGE(.BOTH.,#177);
#120=FACE_OUTER_BOUND('',#178,.T.);
#121=FACE_OUTER_BOUND('',#179,.T.);
#122=SURFACE_OF_REVOLUTION('',#180,#181);
#123=SURFACE_STYLE_USAGE(.BOTH.,#182);
#124=FACE_BOUND('',#183,.T.);
#125=FACE_OUTER_BOUND('',#184,.T.);
#126=PLANE('',#185);
#127=SURFACE_STYLE_USAGE(.BOTH.,#186);
#128=FACE_OUTER_BOUND('',#187,.T.);
#129=TOROIDAL_SURFACE('',#188,14.6770184009619,0.2);
#130=SURFACE_STYLE_USAGE(.BOTH.,#189);
#131=FACE_OUTER_BOUND('',#190,.T.);
#132=TOROIDAL_SURFACE('',#191,14.6770184009619,0.2);
#133=SURFACE_STYLE_USAGE(.BOTH.,#192);
#134=FACE_BOUND('',#193,.T.);
#135=FACE_OUTER_BOUND('',#194,.T.);
#136=CONICAL_SURFACE('',#195,6.0,0.296705972839037);
#137=SURFACE_STYLE_USAGE(.BOTH.,#196);
#138=FACE_OUTER_BOUND('',#197,.T.);
#139=PLANE('',#198);
#140=SURFACE_STYLE_USAGE(.BOTH.,#199);
#141=FACE_BOUND('',#200,.T.);
#142=FACE_OUTER_BOUND('',#201,.T.);
#143=CONICAL_SURFACE('',#202,15.32,0.0523598775598285);
#144=SURFACE_STYLE_USAGE(.BOTH.,#203);
#145=FACE_OUTER_BOUND('',#204,.T.);
#146=FACE_BOUND('',#205,.T.);
#147=CONICAL_SURFACE('',#206,16.32,0.0523598775598307);
#148=SURFACE_STYLE_USAGE(.BOTH.,#207);
#149=CLOSED_SHELL('',(#53,#55,#57,#59,#61,#63,#65,#67,#69,#71,#73,#75,#77));
#150=PRODUCT_CONTEXT('',#30,'mechanical');
#151=PRODUCT_DEFINITION_FORMATION_WITH_SPECIFIED_SOURCE('A','NONE',#80,.NOT_KNOWN.);
#152=CARTESIAN_POINT('',(0.0,0.0,0.0));
#153=DIRECTION('',(0.0,0.0,1.0));
#154=DIRECTION('',(1.0,0.0,0.0));
#155= (NAMED_UNIT(#88)LENGTH_UNIT()SI_UNIT(.MILLI.,.METRE.));
#156=SURFACE_SIDE_STYLE('',(#209));
#157=VERTEX_LOOP('',#210);
#158=EDGE_LOOP('',(#211));
#159=AXIS2_PLACEMENT_3D('',#212,#213,#214);
#160=SURFACE_SIDE_STYLE('',(#215));
#161=EDGE_LOOP('',(#216,#217));
#162=EDGE_LOOP('',(#218));
#163=B_SPLINE_CURVE_WITH_KNOTS('',3,(#219,#220,#221,#222,#223,#224,#225,#226,#227,#228,#229,#230,#231,#232,#233,#234,#235,#236,#237,#238,#239),.UNSPECIFIED.,.F.,.F.,(4,1,1,1,1,1,1,1,1,1,1,1,1,1,1,1,1,1,4),(-0.015795723451939,-0.0157337851498007,-0.0147402732627038,-0.0137519259618655,-0.0127592695112438,-0.0117641893266366,-0.0107710474960152,-0.00977465599845436,-0.00879156728385397,-0.00782470052242073,-0.00687119090086331,-0.00593216567313504,-0.00501529110691863,-0.00411358423686583,-0.0032389669856502,-0.00239146332624109,-0.00157567049731748,-0.000791858064138057,0.0),.UNSPECIFIED.);
#164=AXIS1_PLACEMENT('',#240,#241);
#165=SURFACE_SIDE_STYLE('',(#242));
#166=EDGE_LOOP('',(#243));
#167=EDGE_LOOP('',(#244));
#168=AXIS2_PLACEMENT_3D('',#245,#246,#247);
#169=SURFACE_SIDE_STYLE('',(#248));
#170=EDGE_LOOP('',(#249));
#171=EDGE_LOOP('',(#250));
#172=AXIS2_PLACEMENT_3D('',#251,#252,#253);
#173=SURFACE_SIDE_STYLE('',(#254));
#174=EDGE_LOOP('',(#255));
#175=EDGE_LOOP('',(#256,#257));
#176=AXIS2_PLACEMENT_3D('',#258,#259,#260);
#177=SURFACE_SIDE_STYLE('',(#261));
#178=EDGE_LOOP('',(#262));
#179=EDGE_LOOP('',(#263));
#180=B_SPLINE_CURVE_WITH_KNOTS('',3,(#264,#265,#266,#267,#268,#269,#270,#271,#272,#273,#274,#275,#276,#277,#278,#279,#280,#281,#282,#283,#284,#285),.UNSPECIFIED.,.F.,.F.,(4,1,1,1,1,1,1,1,1,1,1,1,1,1,1,1,1,1,1,4),(-0.0157283128497916,-0.0156925912525983,-0.0147466379498066,-0.0138065072085985,-0.0128725510145501,-0.0119358653509128,-0.0109982805095901,-0.010063939645569,-0.00912798423531936,-0.00820595472194598,-0.00730053518168335,-0.00640896962640718,-0.00553222096443397,-0.00467732309241564,-0.00383761817087322,-0.00301684197208085,-0.00222294480052387,-0.0014599783298956,-0.000727852185174157,0.0),.UNSPECIFIED.);
#181=AXIS1_PLACEMENT('',#286,#287);
#182=SURFACE_SIDE_STYLE('',(#288));
#183=EDGE_LOOP('',(#289));
#184=EDGE_LOOP('',(#290));
#185=AXIS2_PLACEMENT_3D('',#291,#292,#293);
#186=SURFACE_SIDE_STYLE('',(#294));
#187=EDGE_LOOP('',(#295,#296,#297,#298));
#188=AXIS2_PLACEMENT_3D('',#299,#300,#301);
#189=SURFACE_SIDE_STYLE('',(#302));
#190=EDGE_LOOP('',(#303,#304,#305,#306));
#191=AXIS2_PLACEMENT_3D('',#307,#308,#309);
#192=SURFACE_SIDE_STYLE('',(#310));
#193=EDGE_LOOP('',(#311));
#194=EDGE_LOOP('',(#312));
#195=AXIS2_PLACEMENT_3D('',#313,#314,#315);
#196=SURFACE_SIDE_STYLE('',(#316));
#197=EDGE_LOOP('',(#317));
#198=AXIS2_PLACEMENT_3D('',#318,#319,#320);
#199=SURFACE_SIDE_STYLE('',(#321));
#200=EDGE_LOOP('',(#322));
#201=EDGE_LOOP('',(#323));
#202=AXIS2_PLACEMENT_3D('',#324,#325,#326);
#203=SURFACE_SIDE_STYLE('',(#327));
#204=EDGE_LOOP('',(#328));
#205=EDGE_LOOP('',(#329));
#206=AXIS2_PLACEMENT_3D('',#330,#331,#332);
#207=SURFACE_SIDE_STYLE('',(#333));
#209=SURFACE_STYLE_FILL_AREA(#334);
#210=VERTEX_POINT('',#335);
#211=ORIENTED_EDGE('',*,*,#336,.T.);
#212=CARTESIAN_POINT('',(0.0,5.8,2.11338102376988));
#213=DIRECTION('',(0.0,1.0,0.0));
#214=DIRECTION('',(0.0,0.0,1.0));
#215=SURFACE_STYLE_FILL_AREA(#337);
#216=ORIENTED_EDGE('',*,*,#338,.T.);
#217=ORIENTED_EDGE('',*,*,#339,.T.);
#218=ORIENTED_EDGE('',*,*,#340,.F.);
#219=CARTESIAN_POINT('',(-14.5211043077921,14.06,0.0));
#220=CARTESIAN_POINT('',(-14.5160799955807,14.0399739293454,0.0));
#221=CARTESIAN_POINT('',(-14.4303664542148,13.6987478836336,0.0));
#222=CARTESIAN_POINT('',(-14.2615783747735,13.0387312124472,0.0));
#223=CARTESIAN_POINT('',(-14.0059501927548,12.0806874276063,0.0));
#224=CARTESIAN_POINT('',(-13.7269592689102,11.128575361195,0.0));
#225=CARTESIAN_POINT('',(-13.4251953330656,10.1818383105581,0.0));
#226=CARTESIAN_POINT('',(-13.1061417594245,9.23935358208481,0.0));
#227=CARTESIAN_POINT('',(-12.7542624263853,8.31291224384611,0.0));
#228=CARTESIAN_POINT('',(-12.3916749612191,7.40015658426575,0.0));
#229=CARTESIAN_POINT('',(-12.0161771420138,6.50805313695141,0.0));
#230=CARTESIAN_POINT('',(-11.6220088990657,5.64002573055824,0.0));
#231=CARTESIAN_POINT('',(-11.204565249695,4.80163442497632,0.0));
#232=CARTESIAN_POINT('',(-10.7749228048828,3.98871625729894,0.0));
#233=CARTESIAN_POINT('',(-10.3138596980703,3.21806060187168,0.0));
#234=CARTESIAN_POINT('',(-9.83950137864347,2.48300037373267,0.0));
#235=CARTESIAN_POINT('',(-9.34578369050308,1.79559016301096,0.0));
#236=CARTESIAN_POINT('',(-8.83957107543149,1.15563119403167,0.0));
#237=CARTESIAN_POINT('',(-8.31243549749532,0.556864943355716,0.0));
#238=CARTESIAN_POINT('',(-7.94011221366826,0.186252450429113,0.0));
#239=CARTESIAN_POINT('',(-7.753,0.0,0.0));
#240=CARTESIAN_POINT('',(0.0,0.0,0.0));
#241=DIRECTION('',(-0.0,1.0,-0.0));
#242=SURFACE_STYLE_FILL_AREA(#341);
#243=ORIENTED_EDGE('',*,*,#342,.T.);
#244=ORIENTED_EDGE('',*,*,#343,.F.);
#245=CARTESIAN_POINT('',(-14.565,15.56,0.0));
#246=DIRECTION('',(0.0,-1.0,0.0));
#247=DIRECTION('',(0.0,0.0,-1.0));
#248=SURFACE_STYLE_FILL_AREA(#344);
#249=ORIENTED_EDGE('',*,*,#345,.F.);
#250=ORIENTED_EDGE('',*,*,#340,.T.);
#251=CARTESIAN_POINT('',(-5.4,1.648,-6.81651374775189E-09));
#252=DIRECTION('',(0.0,-1.0,0.0));
#253=DIRECTION('',(0.0,0.0,-1.0));
#254=SURFACE_STYLE_FILL_AREA(#346);
#255=ORIENTED_EDGE('',*,*,#347,.T.);
#256=ORIENTED_EDGE('',*,*,#348,.T.);
#257=ORIENTED_EDGE('',*,*,#349,.T.);
#258=CARTESIAN_POINT('',(-16.32,14.06,0.0));
#259=DIRECTION('',(-0.0,1.0,0.0));
#260=DIRECTION('',(1.0,0.0,0.0));
#261=SURFACE_STYLE_FILL_AREA(#350);
#262=ORIENTED_EDGE('',*,*,#351,.F.);
#263=ORIENTED_EDGE('',*,*,#345,.T.);
#264=CARTESIAN_POINT('',(-13.5772236401374,14.06,0.0));
#265=CARTESIAN_POINT('',(-13.5745326469482,14.048401143259,0.0));
#266=CARTESIAN_POINT('',(-13.5004254758296,13.7296858213143,0.0));
#267=CARTESIAN_POINT('',(-13.3467043492322,13.1077484979952,0.0));
#268=CARTESIAN_POINT('',(-13.1138098894624,12.1970546964075,0.0));
#269=CARTESIAN_POINT('',(-12.8722577715449,11.2917488671034,0.0));
#270=CARTESIAN_POINT('',(-12.6090083425545,10.3933361460426,0.0));
#271=CARTESIAN_POINT('',(-12.3246873972409,9.50131050324489,0.0));
#272=CARTESIAN_POINT('',(-12.024532850816,8.61463238482854,0.0));
#273=CARTESIAN_POINT('',(-11.6940030701233,7.74437884409921,0.0));
#274=CARTESIAN_POINT('',(-11.3539285276094,6.8882984298741,0.0));
#275=CARTESIAN_POINT('',(-11.002303401097,6.05285781563018,0.0));
#276=CARTESIAN_POINT('',(-10.6336889073187,5.24122078499683,0.0));
#277=CARTESIAN_POINT('',(-10.2440893955858,4.45828188218889,0.0));
#278=CARTESIAN_POINT('',(-9.84284990581627,3.7006660818104,0.0));
#279=CARTESIAN_POINT('',(-9.41448993372864,2.97944274904943,0.0));
#280=CARTESIAN_POINT('',(-8.96255531258727,2.29712045319249,0.0));
#281=CARTESIAN_POINT('',(-8.49499953952803,1.65682014591078,0.0));
#282=CARTESIAN_POINT('',(-8.01613554295004,1.06246644361078,0.0));
#283=CARTESIAN_POINT('',(-7.52140947264237,0.510104145941231,0.0));
#284=CARTESIAN_POINT('',(-7.17346363048655,0.169702549960953,0.0));
#285=CARTESIAN_POINT('',(-7.0,0.0,0.0));
#286=CARTESIAN_POINT('',(0.0,0.0,0.0));
#287=DIRECTION('',(-0.0,1.0,-0.0));
#288=SURFACE_STYLE_FILL_AREA(#352);
#289=ORIENTED_EDGE('',*,*,#353,.F.);
#290=ORIENTED_EDGE('',*,*,#351,.T.);
#291=CARTESIAN_POINT('',(-7.0,0.0,0.0));
#292=DIRECTION('',(-0.0,1.0,0.0));
#293=DIRECTION('',(1.0,0.0,0.0));
#294=SURFACE_STYLE_FILL_AREA(#354);
#295=ORIENTED_EDGE('',*,*,#355,.T.);
#296=ORIENTED_EDGE('',*,*,#349,.F.);
#297=ORIENTED_EDGE('',*,*,#356,.T.);
#298=ORIENTED_EDGE('',*,*,#339,.F.);
#299=CARTESIAN_POINT('',(0.0,13.86,0.0));
#300=DIRECTION('',(0.0,-1.0,0.0));
#301=DIRECTION('',(0.0,0.0,-1.0));
#302=SURFACE_STYLE_FILL_AREA(#357);
#303=ORIENTED_EDGE('',*,*,#356,.F.);
#304=ORIENTED_EDGE('',*,*,#348,.F.);
#305=ORIENTED_EDGE('',*,*,#355,.F.);
#306=ORIENTED_EDGE('',*,*,#338,.F.);
#307=CARTESIAN_POINT('',(0.0,13.86,0.0));
#308=DIRECTION('',(0.0,-1.0,0.0));
#309=DIRECTION('',(0.0,0.0,-1.0));
#310=SURFACE_STYLE_FILL_AREA(#358);
#311=ORIENTED_EDGE('',*,*,#336,.F.);
#312=ORIENTED_EDGE('',*,*,#353,.T.);
#313=CARTESIAN_POINT('',(0.0,4.3521162693648E-15,0.0));
#314=DIRECTION('',(0.0,-1.0,-0.0));
#315=DIRECTION('',(0.0,0.0,-1.0));
#316=SURFACE_STYLE_FILL_AREA(#359);
#317=ORIENTED_EDGE('',*,*,#360,.F.);
#318=CARTESIAN_POINT('',(0.0,16.0480714657601,7.64721062917407));
#319=DIRECTION('',(0.0,-1.0,0.0));
#320=DIRECTION('',(0.0,0.0,-1.0));
#321=SURFACE_STYLE_FILL_AREA(#361);
#322=ORIENTED_EDGE('',*,*,#360,.T.);
#323=ORIENTED_EDGE('',*,*,#342,.F.);
#324=CARTESIAN_POINT('',(0.0,15.56,0.0));
#325=DIRECTION('',(0.0,-1.0,-0.0));
#326=DIRECTION('',(0.0,0.0,-1.0));
#327=SURFACE_STYLE_FILL_AREA(#362);
#328=ORIENTED_EDGE('',*,*,#343,.T.);
#329=ORIENTED_EDGE('',*,*,#347,.F.);
#330=CARTESIAN_POINT('',(0.0,15.63,0.0));
#331=DIRECTION('',(-0.0,1.0,-0.0));
#332=DIRECTION('',(0.0,0.0,1.0));
#333=SURFACE_STYLE_FILL_AREA(#363);
#334=FILL_AREA_STYLE('',(#364));
#335=CARTESIAN_POINT('',(0.0,5.8,0.0));
#336=EDGE_CURVE('',#365,#365,#366,.T.);
#337=FILL_AREA_STYLE('',(#367));
#338=EDGE_CURVE('',#368,#369,#370,.T.);
#339=EDGE_CURVE('',#369,#368,#371,.T.);
#340=EDGE_CURVE('',#372,#372,#373,.T.);
#341=FILL_AREA_STYLE('',(#374));
#342=EDGE_CURVE('',#375,#375,#376,.T.);
#343=EDGE_CURVE('',#377,#377,#378,.T.);
#344=FILL_AREA_STYLE('',(#379));
#345=EDGE_CURVE('',#380,#380,#381,.T.);
#346=FILL_AREA_STYLE('',(#382));
#347=EDGE_CURVE('',#383,#383,#384,.F.);
#348=EDGE_CURVE('',#385,#386,#387,.T.);
#349=EDGE_CURVE('',#386,#385,#388,.T.);
#350=FILL_AREA_STYLE('',(#389));
#351=EDGE_CURVE('',#390,#390,#391,.T.);
#352=FILL_AREA_STYLE('',(#392));
#353=EDGE_CURVE('',#393,#393,#394,.T.);
#354=FILL_AREA_STYLE('',(#395));
#355=EDGE_CURVE('',#369,#385,#396,.T.);
#356=EDGE_CURVE('',#386,#368,#397,.T.);
#357=FILL_AREA_STYLE('',(#398));
#358=FILL_AREA_STYLE('',(#399));
#359=FILL_AREA_STYLE('',(#400));
#360=EDGE_CURVE('',#401,#401,#402,.T.);
#361=FILL_AREA_STYLE('',(#403));
#362=FILL_AREA_STYLE('',(#404));
#363=FILL_AREA_STYLE('',(#405));
#364=FILL_AREA_STYLE_COLOUR('',#406);
#365=VERTEX_POINT('',#407);
#366=CIRCLE('',#408,4.22676204753976);
#367=FILL_AREA_STYLE_COLOUR('',#409);
#368=VERTEX_POINT('',#410);
#369=VERTEX_POINT('',#411);
#370=CIRCLE('',#412,14.4830942443553);
#371=CIRCLE('',#413,14.4830942443553);
#372=VERTEX_POINT('',#414);
#373=CIRCLE('',#415,9.22520289822549);
#374=FILL_AREA_STYLE_COLOUR('',#416);
#375=VERTEX_POINT('',#417);
#376=CIRCLE('',#418,15.32);
#377=VERTEX_POINT('',#419);
#378=CIRCLE('',#420,16.3163314554502);
#379=FILL_AREA_STYLE_COLOUR('',#421);
#380=VERTEX_POINT('',#422);
#381=CIRCLE('',#423,8.48045781397523);
#382=FILL_AREA_STYLE_COLOUR('',#424);
#383=VERTEX_POINT('',#425);
#384=CIRCLE('',#426,16.2377197865257);
#385=VERTEX_POINT('',#427);
#386=VERTEX_POINT('',#428);
#387=CIRCLE('',#429,14.6770184009619);
#388=CIRCLE('',#430,14.6770184009619);
#389=FILL_AREA_STYLE_COLOUR('',#431);
#390=VERTEX_POINT('',#432);
#391=CIRCLE('',#433,7.0);
#392=FILL_AREA_STYLE_COLOUR('',#434);
#393=VERTEX_POINT('',#435);
#394=CIRCLE('',#436,6.0);
#395=FILL_AREA_STYLE_COLOUR('',#437);
#396=CIRCLE('',#438,0.2);
#397=CIRCLE('',#439,0.2);
#398=FILL_AREA_STYLE_COLOUR('',#440);
#399=FILL_AREA_STYLE_COLOUR('',#441);
#400=FILL_AREA_STYLE_COLOUR('',#442);
#401=VERTEX_POINT('',#443);
#402=CIRCLE('',#444,15.2944212583482);
#403=FILL_AREA_STYLE_COLOUR('',#445);
#404=FILL_AREA_STYLE_COLOUR('',#446);
#405=FILL_AREA_STYLE_COLOUR('',#447);
#406=COLOUR_RGB('',0.752941191196442,0.752941191196442,0.752941191196442);
#407=CARTESIAN_POINT('',(0.0,5.8,-4.22676204753976));
#408=AXIS2_PLACEMENT_3D('',#448,#449,#450);
#409=COLOUR_RGB('',0.752941191196442,0.752941191196442,0.752941191196442);
#410=CARTESIAN_POINT('',(14.4188957093936,13.9089226070894,1.36215469477956));
#411=CARTESIAN_POINT('',(14.41889570943,13.9089226070894,-1.36215469439391));
#412=AXIS2_PLACEMENT_3D('',#451,#452,#453);
#413=AXIS2_PLACEMENT_3D('',#454,#455,#456);
#414=CARTESIAN_POINT('',(0.0,1.648,-9.22520289822549));
#415=AXIS2_PLACEMENT_3D('',#457,#458,#459);
#416=COLOUR_RGB('',0.752941191196442,0.752941191196442,0.752941191196442);
#417=CARTESIAN_POINT('',(0.0,15.56,-15.32));
#418=AXIS2_PLACEMENT_3D('',#460,#461,#462);
#419=CARTESIAN_POINT('',(0.0,15.56,-16.3163314554502));
#420=AXIS2_PLACEMENT_3D('',#463,#464,#465);
#421=COLOUR_RGB('',0.752941191196442,0.752941191196442,0.752941191196442);
#422=CARTESIAN_POINT('',(0.0,1.648,-8.48045781397523));
#423=AXIS2_PLACEMENT_3D('',#466,#467,#468);
#424=COLOUR_RGB('',0.752941191196442,0.752941191196442,0.752941191196442);
#425=CARTESIAN_POINT('',(-3.97709431240406E-15,14.06,16.2377197865257));
#426=AXIS2_PLACEMENT_3D('',#469,#470,#471);
#427=CARTESIAN_POINT('',(14.6119602674915,14.06,-1.38039352484142));
#428=CARTESIAN_POINT('',(14.6119602674546,14.06,1.38039352523223));
#429=AXIS2_PLACEMENT_3D('',#472,#473,#474);
#430=AXIS2_PLACEMENT_3D('',#475,#476,#477);
#431=COLOUR_RGB('',0.752941191196442,0.752941191196442,0.752941191196442);
#432=CARTESIAN_POINT('',(0.0,0.0,-7.0));
#433=AXIS2_PLACEMENT_3D('',#478,#479,#480);
#434=COLOUR_RGB('',0.752941191196442,0.752941191196442,0.752941191196442);
#435=CARTESIAN_POINT('',(0.0,0.0,-6.0));
#436=AXIS2_PLACEMENT_3D('',#481,#482,#483);
#437=COLOUR_RGB('',0.752941191196442,0.752941191196442,0.752941191196442);
#438=AXIS2_PLACEMENT_3D('',#484,#485,#486);
#439=AXIS2_PLACEMENT_3D('',#487,#488,#489);
#440=COLOUR_RGB('',0.752941191196442,0.752941191196442,0.752941191196442);
#441=COLOUR_RGB('',0.752941191196442,0.752941191196442,0.752941191196442);
#442=COLOUR_RGB('',0.752941191196442,0.752941191196442,0.752941191196442);
#443=CARTESIAN_POINT('',(0.0,16.0480714657601,-15.2944212583482));
#444=AXIS2_PLACEMENT_3D('',#490,#491,#492);
#445=COLOUR_RGB('',0.752941191196442,0.752941191196442,0.752941191196442);
#446=COLOUR_RGB('',0.752941191196442,0.752941191196442,0.752941191196442);
#447=COLOUR_RGB('',0.752941191196442,0.752941191196442,0.752941191196442);
#448=CARTESIAN_POINT('',(0.0,5.8,0.0));
#449=DIRECTION('',(0.0,-1.0,0.0));
#450=DIRECTION('',(0.0,0.0,-1.0));
#451=CARTESIAN_POINT('',(0.0,13.9089226070894,0.0));
#452=DIRECTION('',(0.0,-1.0,0.0));
#453=DIRECTION('',(0.0,0.0,-1.0));
#454=CARTESIAN_POINT('',(0.0,13.9089226070894,0.0));
#455=DIRECTION('',(0.0,-1.0,0.0));
#456=DIRECTION('',(0.0,0.0,-1.0));
#457=CARTESIAN_POINT('',(0.0,1.648,0.0));
#458=DIRECTION('',(0.0,-1.0,0.0));
#459=DIRECTION('',(0.0,0.0,-1.0));
#460=CARTESIAN_POINT('',(0.0,15.56,0.0));
#461=DIRECTION('',(0.0,-1.0,0.0));
#462=DIRECTION('',(0.0,0.0,-1.0));
#463=CARTESIAN_POINT('',(0.0,15.56,0.0));
#464=DIRECTION('',(0.0,-1.0,0.0));
#465=DIRECTION('',(0.0,0.0,-1.0));
#466=CARTESIAN_POINT('',(0.0,1.648,0.0));
#467=DIRECTION('',(0.0,-1.0,0.0));
#468=DIRECTION('',(0.0,0.0,-1.0));
#469=CARTESIAN_POINT('',(0.0,14.06,0.0));
#470=DIRECTION('',(0.0,1.0,0.0));
#471=DIRECTION('',(0.0,0.0,1.0));
#472=CARTESIAN_POINT('',(0.0,14.06,0.0));
#473=DIRECTION('',(0.0,1.0,0.0));
#474=DIRECTION('',(0.0,0.0,1.0));
#475=CARTESIAN_POINT('',(0.0,14.06,0.0));
#476=DIRECTION('',(0.0,1.0,0.0));
#477=DIRECTION('',(0.0,0.0,1.0));
#478=CARTESIAN_POINT('',(0.0,0.0,0.0));
#479=DIRECTION('',(0.0,-1.0,0.0));
#480=DIRECTION('',(0.0,0.0,-1.0));
#481=CARTESIAN_POINT('',(0.0,0.0,0.0));
#482=DIRECTION('',(0.0,-1.0,0.0));
#483=DIRECTION('',(0.0,0.0,-1.0));
#484=CARTESIAN_POINT('',(14.6119602674915,13.86,-1.38039352484142));
#485=DIRECTION('',(-0.0940513588748344,0.0,-0.995567346739434));
#486=DIRECTION('',(-0.995567346739434,0.0,0.0940513588748344));
#487=CARTESIAN_POINT('',(14.6119602674546,13.86,1.38039352523223));
#488=DIRECTION('',(-0.0940513589014612,0.0,0.995567346736919));
#489=DIRECTION('',(0.995567346736919,0.0,0.0940513589014612));
#490=CARTESIAN_POINT('',(0.0,16.0480714657601,0.0));
#491=DIRECTION('',(0.0,-1.0,0.0));
#492=DIRECTION('',(0.0,0.0,-1.0));
ENDSEC;
END-ISO-10303-21;
