ISO-10303-21;
HEADER;
FILE_DESCRIPTION(('STEP AP214'),'1');
FILE_NAME('LLC15N7 - MECHANICAL VERSION.stp','2019-06-07T13:43:31',(' '),(' '),'Spatial InterOp 3D',' ',' ');
FILE_SCHEMA(('AUTOMOTIVE_DESIGN { 1 0 10303 214 1 1 1 1 }'));
ENDSEC;
DATA;
#1=MECHANICAL_DESIGN_GEOMETRIC_PRESENTATION_REPRESENTATION(' ',(#10,#11,#12,#13,#14,#15,#16,#17),#6);
#2=PRODUCT_DEFINITION_CONTEXT('',#18,'design');
#3=APPLICATION_PROTOCOL_DEFINITION('INTERNATIONAL STANDARD','automotive_design',1994,#18);
#4=PRODUCT_CATEGORY_RELATIONSHIP('NONE','NONE',#19,#20);
#5=SHAPE_DEFINITION_REPRESENTATION(#21,#22);
#6= (GEOMETRIC_REPRESENTATION_CONTEXT(3)GLOBAL_UNCERTAINTY_ASSIGNED_CONTEXT((#25))GLOBAL_UNIT_ASSIGNED_CONTEXT((#27,#28,#29))REPRESENTATION_CONTEXT('NONE','WORKSPACE'));
#10=STYLED_ITEM('',(#31),#32);
#11=STYLED_ITEM('',(#33),#34);
#12=STYLED_ITEM('',(#35),#36);
#13=STYLED_ITEM('',(#37),#38);
#14=STYLED_ITEM('',(#39),#40);
#15=STYLED_ITEM('',(#41),#42);
#16=STYLED_ITEM('',(#43),#44);
#17=STYLED_ITEM('',(#45),#46);
#18=APPLICATION_CONTEXT(' ');
#19=PRODUCT_CATEGORY('part','NONE');
#20=PRODUCT_RELATED_PRODUCT_CATEGORY('detail',' ',(#47));
#21=PRODUCT_DEFINITION_SHAPE('NONE','NONE',#48);
#22=ADVANCED_BREP_SHAPE_REPRESENTATION('LLC15N7 - MECHANICAL VERSION',(#49,#50),#6);
#25=UNCERTAINTY_MEASURE_WITH_UNIT(LENGTH_MEASURE(0.001),#27,'','');
#27= (CONVERSION_BASED_UNIT('MILLIMETRE',#53)LENGTH_UNIT()NAMED_UNIT(#56));
#28= (NAMED_UNIT(#58)PLANE_ANGLE_UNIT()SI_UNIT($,.RADIAN.));
#29= (NAMED_UNIT(#58)SOLID_ANGLE_UNIT()SI_UNIT($,.STERADIAN.));
#31=PRESENTATION_STYLE_ASSIGNMENT((#64));
#32=ADVANCED_FACE('',(#65,#66),#67,.F.);
#33=PRESENTATION_STYLE_ASSIGNMENT((#68));
#34=ADVANCED_FACE('',(#69),#70,.F.);
#35=PRESENTATION_STYLE_ASSIGNMENT((#71));
#36=ADVANCED_FACE('',(#72,#73),#74,.T.);
#37=PRESENTATION_STYLE_ASSIGNMENT((#75));
#38=ADVANCED_FACE('',(#76,#77),#78,.T.);
#39=PRESENTATION_STYLE_ASSIGNMENT((#79));
#40=ADVANCED_FACE('',(#80,#81),#82,.T.);
#41=PRESENTATION_STYLE_ASSIGNMENT((#83));
#42=ADVANCED_FACE('',(#84,#85),#86,.T.);
#43=PRESENTATION_STYLE_ASSIGNMENT((#87));
#44=ADVANCED_FACE('',(#88,#89),#90,.T.);
#45=PRESENTATION_STYLE_ASSIGNMENT((#91));
#46=ADVANCED_FACE('',(#92,#93),#94,.T.);
#47=PRODUCT('LLC15N7 - MECHANICAL VERSION','LLC15N7 - MECHANICAL VERSION','PART-LLC15N7 - MECHANICAL VERSION-DESC',(#95));
#48=PRODUCT_DEFINITION('','NONE',#96,#2);
#49=MANIFOLD_SOLID_BREP('LLC15N7 - MECHANICAL VERSION',#97);
#50=AXIS2_PLACEMENT_3D('',#98,#99,#100);
#53=LENGTH_MEASURE_WITH_UNIT(LENGTH_MEASURE(1.0),#101);
#56=DIMENSIONAL_EXPONENTS(1.0,0.0,0.0,0.0,0.0,0.0,0.0);
#58=DIMENSIONAL_EXPONENTS(0.0,0.0,0.0,0.0,0.0,0.0,0.0);
#64=SURFACE_STYLE_USAGE(.BOTH.,#102);
#65=FACE_BOUND('',#103,.T.);
#66=FACE_OUTER_BOUND('',#104,.T.);
#67=SURFACE_OF_REVOLUTION('',#105,#106);
#68=SURFACE_STYLE_USAGE(.BOTH.,#107);
#69=FACE_OUTER_BOUND('',#108,.T.);
#70=PLANE('',#109);
#71=SURFACE_STYLE_USAGE(.BOTH.,#110);
#72=FACE_OUTER_BOUND('',#111,.T.);
#73=FACE_OUTER_BOUND('',#112,.T.);
#74=CYLINDRICAL_SURFACE('',#113,14.5189518444143);
#75=SURFACE_STYLE_USAGE(.BOTH.,#114);
#76=FACE_OUTER_BOUND('',#115,.T.);
#77=FACE_BOUND('',#116,.T.);
#78=PLANE('',#117);
#79=SURFACE_STYLE_USAGE(.BOTH.,#118);
#80=FACE_OUTER_BOUND('',#119,.T.);
#81=FACE_BOUND('',#120,.T.);
#82=PLANE('',#121);
#83=SURFACE_STYLE_USAGE(.BOTH.,#122);
#84=FACE_OUTER_BOUND('',#123,.T.);
#85=FACE_OUTER_BOUND('',#124,.T.);
#86=CYLINDRICAL_SURFACE('',#125,16.32);
#87=SURFACE_STYLE_USAGE(.BOTH.,#126);
#88=FACE_BOUND('',#127,.T.);
#89=FACE_OUTER_BOUND('',#128,.T.);
#90=PLANE('',#129);
#91=SURFACE_STYLE_USAGE(.BOTH.,#130);
#92=FACE_OUTER_BOUND('',#131,.T.);
#93=FACE_BOUND('',#132,.T.);
#94=CONICAL_SURFACE('',#133,523.48073445275,0.55093103735651);
#95=PRODUCT_CONTEXT('',#18,'mechanical');
#96=PRODUCT_DEFINITION_FORMATION_WITH_SPECIFIED_SOURCE(' ','NONE',#47,.NOT_KNOWN.);
#97=CLOSED_SHELL('',(#32,#34,#36,#38,#40,#42,#44,#46));
#98=CARTESIAN_POINT('',(0.0,0.0,0.0));
#99=DIRECTION('',(0.0,0.0,1.0));
#100=DIRECTION('',(1.0,0.0,0.0));
#101= (NAMED_UNIT(#56)LENGTH_UNIT()SI_UNIT(.MILLI.,.METRE.));
#102=SURFACE_SIDE_STYLE('',(#135));
#103=VERTEX_LOOP('',#136);
#104=EDGE_LOOP('',(#137));
#105=B_SPLINE_CURVE_WITH_KNOTS('',3,(#138,#139,#140,#141,#142,#143,#144,#145,#146,#147,#148,#149,#150,#151,#152,#153,#154,#155,#156,#157,#158,#159,#160,#161,#162),.UNSPECIFIED.,.F.,.F.,(4,3,3,3,3,3,3,3,4),(0.0,1.0,2.0,3.0,4.0,5.0,6.0,7.0,8.0),.UNSPECIFIED.);
#106=AXIS1_PLACEMENT('',#163,#164);
#107=SURFACE_SIDE_STYLE('',(#165));
#108=EDGE_LOOP('',(#166));
#109=AXIS2_PLACEMENT_3D('',#167,#168,#169);
#110=SURFACE_SIDE_STYLE('',(#170));
#111=EDGE_LOOP('',(#171));
#112=EDGE_LOOP('',(#172));
#113=AXIS2_PLACEMENT_3D('',#173,#174,#175);
#114=SURFACE_SIDE_STYLE('',(#176));
#115=EDGE_LOOP('',(#177));
#116=EDGE_LOOP('',(#178));
#117=AXIS2_PLACEMENT_3D('',#179,#180,#181);
#118=SURFACE_SIDE_STYLE('',(#182));
#119=EDGE_LOOP('',(#183));
#120=EDGE_LOOP('',(#184));
#121=AXIS2_PLACEMENT_3D('',#185,#186,#187);
#122=SURFACE_SIDE_STYLE('',(#188));
#123=EDGE_LOOP('',(#189));
#124=EDGE_LOOP('',(#190));
#125=AXIS2_PLACEMENT_3D('',#191,#192,#193);
#126=SURFACE_SIDE_STYLE('',(#194));
#127=EDGE_LOOP('',(#195));
#128=EDGE_LOOP('',(#196));
#129=AXIS2_PLACEMENT_3D('',#197,#198,#199);
#130=SURFACE_SIDE_STYLE('',(#200));
#131=EDGE_LOOP('',(#201));
#132=EDGE_LOOP('',(#202));
#133=AXIS2_PLACEMENT_3D('',#203,#204,#205);
#135=SURFACE_STYLE_FILL_AREA(#206);
#136=VERTEX_POINT('',#207);
#137=ORIENTED_EDGE('',*,*,#208,.T.);
#138=CARTESIAN_POINT('',(5.415,0.0,0.0));
#139=CARTESIAN_POINT('',(4.98914538273865,1.14034719618927,0.0));
#140=CARTESIAN_POINT('',(4.93268303104642,2.39916523150843,0.0));
#141=CARTESIAN_POINT('',(4.46281230016438,3.40569985008945,0.0));
#142=CARTESIAN_POINT('',(3.99294156928236,4.41223446867047,0.0));
#143=CARTESIAN_POINT('',(3.94042719442687,5.14620643098337,0.0));
#144=CARTESIAN_POINT('',(4.12141323660125,6.3341881891826,0.0));
#145=CARTESIAN_POINT('',(4.30239927877563,7.52216994738182,0.0));
#146=CARTESIAN_POINT('',(5.23104793562864,9.16733630431102,0.0));
#147=CARTESIAN_POINT('',(5.25214086475351,10.1890671863152,0.0));
#148=CARTESIAN_POINT('',(5.27323379387839,11.2107980683195,0.0));
#149=CARTESIAN_POINT('',(5.22120152672624,10.9948573405628,0.0));
#150=CARTESIAN_POINT('',(5.18164707370398,11.1014738236683,0.0));
#151=CARTESIAN_POINT('',(5.14209262068172,11.2080903067738,0.0));
#152=CARTESIAN_POINT('',(5.02019408177294,11.2163418614236,0.0));
#153=CARTESIAN_POINT('',(4.75380318642669,11.0379534058321,0.0));
#154=CARTESIAN_POINT('',(4.48741229108044,10.8595649502406,0.0));
#155=CARTESIAN_POINT('',(4.12321743127937,10.6079962360279,0.0));
#156=CARTESIAN_POINT('',(3.75098359970492,10.2099425351015,0.0));
#157=CARTESIAN_POINT('',(3.37874976813047,9.81188883417502,0.0));
#158=CARTESIAN_POINT('',(2.80898348185039,9.45195102375176,0.0));
#159=CARTESIAN_POINT('',(2.15830479043815,9.1778202706108,0.0));
#160=CARTESIAN_POINT('',(1.5076260990259,8.90368951746985,0.0));
#161=CARTESIAN_POINT('',(0.772308691815219,8.84262986490898,0.0));
#162=CARTESIAN_POINT('',(0.0,8.57050240180637,0.0));
#163=CARTESIAN_POINT('',(0.0,0.0,0.0));
#164=DIRECTION('',(-0.0,1.0,-0.0));
#165=SURFACE_STYLE_FILL_AREA(#209);
#166=ORIENTED_EDGE('',*,*,#210,.F.);
#167=CARTESIAN_POINT('',(-3.85273883011757E-015,15.73,-2.44179263664993E-015));
#168=DIRECTION('',(2.4492935982947E-016,-1.0,1.22464679914735E-016));
#169=DIRECTION('',(1.0,2.4492935982947E-016,0.0));
#170=SURFACE_STYLE_FILL_AREA(#211);
#171=ORIENTED_EDGE('',*,*,#212,.F.);
#172=ORIENTED_EDGE('',*,*,#210,.T.);
#173=CARTESIAN_POINT('',(-3.44370679920235E-015,14.06,-2.23727662119232E-015));
#174=DIRECTION('',(-2.4492935982947E-016,1.0,-1.22464679914735E-016));
#175=DIRECTION('',(1.0,2.4492935982947E-016,0.0));
#176=SURFACE_STYLE_FILL_AREA(#213);
#177=ORIENTED_EDGE('',*,*,#214,.T.);
#178=ORIENTED_EDGE('',*,*,#208,.F.);
#179=CARTESIAN_POINT('',(3.31473903047095E-016,9.94421709141285E-016,5.41337964999999));
#180=DIRECTION('',(2.4492935982947E-016,-1.0,1.22464679914735E-016));
#181=DIRECTION('',(0.0,-1.22464679914735E-016,-1.0));
#182=SURFACE_STYLE_FILL_AREA(#215);
#183=ORIENTED_EDGE('',*,*,#216,.T.);
#184=ORIENTED_EDGE('',*,*,#217,.F.);
#185=CARTESIAN_POINT('',(-1.69536762114027E-015,14.06,14.4925455875007));
#186=DIRECTION('',(2.4492935982947E-016,-1.0,1.22464679914735E-016));
#187=DIRECTION('',(0.0,-1.22464679914735E-016,-1.0));
#188=SURFACE_STYLE_FILL_AREA(#218);
#189=ORIENTED_EDGE('',*,*,#219,.T.);
#190=ORIENTED_EDGE('',*,*,#216,.F.);
#191=CARTESIAN_POINT('',(1.26542979455588E-014,-50.0,1.81860049673382E-015));
#192=DIRECTION('',(2.4492935982947E-016,-1.0,1.22464679914735E-016));
#193=DIRECTION('',(6.12323399573677E-017,1.22464679914735E-016,1.0));
#194=SURFACE_STYLE_FILL_AREA(#220);
#195=ORIENTED_EDGE('',*,*,#212,.T.);
#196=ORIENTED_EDGE('',*,*,#219,.F.);
#197=CARTESIAN_POINT('',(-2.8240355188338E-015,15.61,16.32));
#198=DIRECTION('',(4.49927934798556E-032,1.0,-1.83697019872103E-016));
#199=DIRECTION('',(1.0,1.09476442525376E-047,2.4492935982947E-016));
#200=SURFACE_STYLE_FILL_AREA(#221);
#201=ORIENTED_EDGE('',*,*,#217,.T.);
#202=ORIENTED_EDGE('',*,*,#214,.F.);
#203=CARTESIAN_POINT('',(-2.06352575240993E-013,842.498324352229,-1.07480921119499E-013));
#204=DIRECTION('',(-2.4492935982947E-016,1.0,-1.22464679914735E-016));
#205=DIRECTION('',(-1.0,-2.4492935982947E-016,0.0));
#206=FILL_AREA_STYLE('',(#222));
#207=CARTESIAN_POINT('',(-2.62387292417551E-016,8.57050240180637,0.0));
#208=EDGE_CURVE('',#223,#223,#224,.F.);
#209=FILL_AREA_STYLE('',(#225));
#210=EDGE_CURVE('',#226,#226,#227,.T.);
#211=FILL_AREA_STYLE('',(#228));
#212=EDGE_CURVE('',#229,#229,#230,.F.);
#213=FILL_AREA_STYLE('',(#231));
#214=EDGE_CURVE('',#232,#232,#233,.T.);
#215=FILL_AREA_STYLE('',(#234));
#216=EDGE_CURVE('',#235,#235,#236,.T.);
#217=EDGE_CURVE('',#237,#237,#238,.T.);
#218=FILL_AREA_STYLE('',(#239));
#219=EDGE_CURVE('',#240,#240,#241,.T.);
#220=FILL_AREA_STYLE('',(#242));
#221=FILL_AREA_STYLE('',(#243));
#222=FILL_AREA_STYLE_COLOUR('',#244);
#223=VERTEX_POINT('',#245);
#224=(B_SPLINE_CURVE(3,(#247,#248,#249,#250,#251,#252,#253),.UNSPECIFIED.,.T.,.F.)B_SPLINE_CURVE_WITH_KNOTS((4,3,4),(0.0,0.5,1.0),.UNSPECIFIED.)RATIONAL_B_SPLINE_CURVE((1.0,0.333333333333333,0.333333333333333,1.0,0.333333333333333,0.333333333333333,1.0))BOUNDED_CURVE()REPRESENTATION_ITEM('')GEOMETRIC_REPRESENTATION_ITEM()CURVE());
#225=FILL_AREA_STYLE_COLOUR('',#260);
#226=VERTEX_POINT('',#261);
#227=CIRCLE('',#262,14.5189518444143);
#228=FILL_AREA_STYLE_COLOUR('',#263);
#229=VERTEX_POINT('',#264);
#230=CIRCLE('',#265,14.5189518444143);
#231=FILL_AREA_STYLE_COLOUR('',#266);
#232=VERTEX_POINT('',#267);
#233=CIRCLE('',#268,5.86075204625081);
#234=FILL_AREA_STYLE_COLOUR('',#269);
#235=VERTEX_POINT('',#270);
#236=CIRCLE('',#271,16.32);
#237=VERTEX_POINT('',#272);
#238=CIRCLE('',#273,14.4990326721868);
#239=FILL_AREA_STYLE_COLOUR('',#274);
#240=VERTEX_POINT('',#275);
#241=CIRCLE('',#276,16.32);
#242=FILL_AREA_STYLE_COLOUR('',#277);
#243=FILL_AREA_STYLE_COLOUR('',#278);
#244=COLOUR_RGB('',0.752941191196442,0.752941191196442,0.752941191196442);
#245=CARTESIAN_POINT('',(1.82432252080973E-014,0.0,-5.415));
#247=CARTESIAN_POINT('',(1.82432252080973E-014,0.0,-5.415));
#248=CARTESIAN_POINT('',(-10.83,0.0,-5.41500000000004));
#249=CARTESIAN_POINT('',(-10.83,0.0,5.41499999999996));
#250=CARTESIAN_POINT('',(-1.89063714498356E-014,0.0,5.415));
#251=CARTESIAN_POINT('',(10.83,0.0,5.41500000000004));
#252=CARTESIAN_POINT('',(10.83,0.0,-5.41499999999996));
#253=CARTESIAN_POINT('',(1.82432252080973E-014,0.0,-5.415));
#260=COLOUR_RGB('',0.752941191196442,0.752941191196442,0.752941191196442);
#261=CARTESIAN_POINT('',(14.5189518444143,15.73,-2.44179263664993E-015));
#262=AXIS2_PLACEMENT_3D('',#279,#280,#281);
#263=COLOUR_RGB('',0.752941191196442,0.752941191196442,0.752941191196442);
#264=CARTESIAN_POINT('',(-7.37946488758534E-015,15.61,14.5189518444143));
#265=AXIS2_PLACEMENT_3D('',#282,#283,#284);
#266=COLOUR_RGB('',0.752941191196442,0.752941191196442,0.752941191196442);
#267=CARTESIAN_POINT('',(5.86075204625081,3.17019372278427E-015,-4.30463349900295E-015));
#268=AXIS2_PLACEMENT_3D('',#285,#286,#287);
#269=COLOUR_RGB('',1.0,0.0,1.0);
#270=CARTESIAN_POINT('',(-1.58346831129753E-015,14.06,16.32));
#271=AXIS2_PLACEMENT_3D('',#288,#289,#290);
#272=CARTESIAN_POINT('',(14.4990326721868,14.06,-6.02648689860412E-015));
#273=AXIS2_PLACEMENT_3D('',#291,#292,#293);
#274=COLOUR_RGB('',1.0,0.0,1.0);
#275=CARTESIAN_POINT('',(-16.32,15.61,-6.21630715247196E-015));
#276=AXIS2_PLACEMENT_3D('',#294,#295,#296);
#277=COLOUR_RGB('',1.0,0.0,1.0);
#278=COLOUR_RGB('',0.752941191196442,0.752941191196442,0.752941191196442);
#279=CARTESIAN_POINT('',(-3.85273883011757E-015,15.73,-2.44179263664993E-015));
#280=DIRECTION('',(2.4492935982947E-016,-1.0,1.22464679914735E-016));
#281=DIRECTION('',(1.0,2.4492935982947E-016,0.0));
#282=CARTESIAN_POINT('',(-3.82334730693803E-015,15.61,-2.42709687506016E-015));
#283=DIRECTION('',(4.49927934798556E-032,1.0,-1.83697019872103E-016));
#284=DIRECTION('',(0.0,1.83697019872103E-016,1.0));
#285=CARTESIAN_POINT('',(-7.70371977754894E-031,1.7347234759768E-015,-4.30463349900295E-015));
#286=DIRECTION('',(2.4492935982947E-016,-1.0,1.22464679914735E-016));
#287=DIRECTION('',(1.0,2.4492935982947E-016,0.0));
#288=CARTESIAN_POINT('',(-2.58278009940177E-015,14.06,-6.02648689860413E-015));
#289=DIRECTION('',(2.4492935982947E-016,-1.0,1.22464679914735E-016));
#290=DIRECTION('',(6.12323399573677E-017,1.22464679914735E-016,1.0));
#291=CARTESIAN_POINT('',(-3.44370679920235E-015,14.06,-6.02648689860412E-015));
#292=DIRECTION('',(2.4492935982947E-016,-1.0,1.22464679914735E-016));
#293=DIRECTION('',(1.0,2.4492935982947E-016,0.0));
#294=CARTESIAN_POINT('',(-3.41551735285281E-015,15.61,-6.21630715247196E-015));
#295=DIRECTION('',(2.4492935982947E-016,-1.0,1.83697019872103E-016));
#296=DIRECTION('',(-1.0,-2.4492935982947E-016,0.0));
#297=PRESENTATION_LAYER_ASSIGNMENT('1','',(#49));
ENDSEC;
END-ISO-10303-21;
