ISO-10303-21;
HEADER;
FILE_DESCRIPTION(('STEP AP203'),'1');
FILE_NAME('201103_LLC25x-  commercial .stp','2020-11-03T10:18:53',(' '),(' '),'Spatial InterOp 3D',' ',' ');
FILE_SCHEMA(('CONFIG_CONTROL_DESIGN'));
ENDSEC;
DATA;
#1=DESIGN_CONTEXT('',#35,'design');
#2=APPLICATION_PROTOCOL_DEFINITION('INTERNATIONAL STANDARD','config_control_design',1994,#35);
#3=PRODUCT_CATEGORY_RELATIONSHIP('NONE','NONE',#36,#37);
#4=DATE_AND_TIME(#38,#39);
#5=DATE_TIME_ROLE('creation_date');
#6=DATE_TIME_ROLE('classification_date');
#7=PERSON_AND_ORGANIZATION_ROLE('creator');
#8=PERSON_AND_ORGANIZATION_ROLE('design_supplier');
#9=PERSON_AND_ORGANIZATION_ROLE('classification_officer');
#10=PERSON_AND_ORGANIZATION_ROLE('design_owner');
#11=APPROVAL_PERSON_ORGANIZATION(#40,#41,#42);
#12=APPROVAL_DATE_TIME(#4,#41);
#13=CC_DESIGN_APPROVAL(#41,(#43,#44,#45));
#14=CC_DESIGN_DATE_AND_TIME_ASSIGNMENT(#4,#5,(#45));
#15=CC_DESIGN_DATE_AND_TIME_ASSIGNMENT(#4,#6,(#43));
#16=CC_DESIGN_PERSON_AND_ORGANIZATION_ASSIGNMENT(#40,#10,(#46));
#17=CC_DESIGN_PERSON_AND_ORGANIZATION_ASSIGNMENT(#40,#7,(#45));
#18=CC_DESIGN_PERSON_AND_ORGANIZATION_ASSIGNMENT(#40,#7,(#44));
#19=CC_DESIGN_PERSON_AND_ORGANIZATION_ASSIGNMENT(#40,#8,(#44));
#20=CC_DESIGN_SECURITY_CLASSIFICATION(#43,(#44));
#21=CC_DESIGN_PERSON_AND_ORGANIZATION_ASSIGNMENT(#40,#9,(#43));
#22=SHAPE_DEFINITION_REPRESENTATION(#47,#48);
#23= (GEOMETRIC_REPRESENTATION_CONTEXT(3)GLOBAL_UNCERTAINTY_ASSIGNED_CONTEXT((#51))GLOBAL_UNIT_ASSIGNED_CONTEXT((#53,#54,#55))REPRESENTATION_CONTEXT('NONE','WORKSPACE'));
#24=PROPERTY_DEFINITION_REPRESENTATION(#57,#58);
#25=GENERAL_PROPERTY_ASSOCIATION('','',#59,#57);
#26=PROPERTY_DEFINITION_REPRESENTATION(#60,#61);
#27=GENERAL_PROPERTY_ASSOCIATION('','',#62,#60);
#28=PROPERTY_DEFINITION_REPRESENTATION(#63,#64);
#29=GENERAL_PROPERTY_ASSOCIATION('','',#65,#63);
#30=PROPERTY_DEFINITION_REPRESENTATION(#66,#67);
#31=GENERAL_PROPERTY_ASSOCIATION('','',#68,#66);
#35=APPLICATION_CONTEXT('CONFIGURATION CONTROLLED 3D DESIGNS OF MECHANICAL PARTS AND ASSEMBLIES');
#36=PRODUCT_CATEGORY('part','NONE');
#37=PRODUCT_RELATED_PRODUCT_CATEGORY('detail',' ',(#46));
#38=CALENDAR_DATE(2020,3,10);
#39=LOCAL_TIME(11,18,53.0,#69);
#40=PERSON_AND_ORGANIZATION(#70,#71);
#41=APPROVAL(#72,'SOLID MODEL');
#42=APPROVAL_ROLE('APPROVED');
#43=SECURITY_CLASSIFICATION('','',#73);
#44=PRODUCT_DEFINITION_FORMATION_WITH_SPECIFIED_SOURCE('A','NONE',#46,.NOT_KNOWN.);
#45=PRODUCT_DEFINITION('','NONE',#44,#1);
#46=PRODUCT('201103_LLC25x-  commercial ','','PART--DESC',(#74));
#47=PRODUCT_DEFINITION_SHAPE('NONE','NONE',#45);
#48=ADVANCED_BREP_SHAPE_REPRESENTATION('1',(#75,#76),#23);
#51=UNCERTAINTY_MEASURE_WITH_UNIT(LENGTH_MEASURE(0.001),#53,'','');
#53= (CONVERSION_BASED_UNIT('MILLIMETRE',#79)LENGTH_UNIT()NAMED_UNIT(#82));
#54= (NAMED_UNIT(#84)PLANE_ANGLE_UNIT()SI_UNIT($,.RADIAN.));
#55= (NAMED_UNIT(#84)SOLID_ANGLE_UNIT()SI_UNIT($,.STERADIAN.));
#57=PROPERTY_DEFINITION('PdmObjectId','',#45);
#58=REPRESENTATION('',(#90),#23);
#59=GENERAL_PROPERTY('','19_0e60968c-358f-44a9-a369-9ca5ffe3c245&35_516_0_24','');
#60=PROPERTY_DEFINITION('CreationDate','',#45);
#61=REPRESENTATION('',(#91),#23);
#62=GENERAL_PROPERTY('','17/04/2020 08:08:17','');
#63=PROPERTY_DEFINITION('Minor Revision','',#45);
#64=REPRESENTATION('',(#92),#23);
#65=GENERAL_PROPERTY('','5','');
#66=PROPERTY_DEFINITION('Comment','',#45);
#67=REPRESENTATION('',(#93),#23);
#68=GENERAL_PROPERTY('','D\X2\00E9\X0\riv\X2\00E9\X0\','');
#69=COORDINATED_UNIVERSAL_TIME_OFFSET(1,0,.AHEAD.);
#70=PERSON('','UNSPECIFIED',$,$,$,$);
#71=ORGANIZATION('UNSPECIFIED','UNSPECIFIED','UNSPECIFIED');
#72=APPROVAL_STATUS('approved');
#73=SECURITY_CLASSIFICATION_LEVEL('unclassified');
#74=MECHANICAL_CONTEXT('',#35,'mechanical');
#75=MANIFOLD_SOLID_BREP('1',#94);
#76=AXIS2_PLACEMENT_3D('',#95,#96,#97);
#79=LENGTH_MEASURE_WITH_UNIT(LENGTH_MEASURE(1.0),#98);
#82=DIMENSIONAL_EXPONENTS(1.0,0.0,0.0,0.0,0.0,0.0,0.0);
#84=DIMENSIONAL_EXPONENTS(0.0,0.0,0.0,0.0,0.0,0.0,0.0);
#90=DESCRIPTIVE_REPRESENTATION_ITEM('','19_0e60968c-358f-44a9-a369-9ca5ffe3c245&35_516_0_24');
#91=DESCRIPTIVE_REPRESENTATION_ITEM('','17/04/2020 08:08:17');
#92=DESCRIPTIVE_REPRESENTATION_ITEM('','5');
#93=DESCRIPTIVE_REPRESENTATION_ITEM('','D\X2\00E9\X0\riv\X2\00E9\X0\');
#94=CLOSED_SHELL('',(#99,#100,#101,#102,#103,#104,#105,#106,#107,#108,#109,#110,#111,#112,#113));
#95=CARTESIAN_POINT('',(0.0,0.0,0.0));
#96=DIRECTION('',(0.0,0.0,1.0));
#97=DIRECTION('',(1.0,0.0,0.0));
#98= (NAMED_UNIT(#82)LENGTH_UNIT()SI_UNIT(.MILLI.,.METRE.));
#99=ADVANCED_FACE('',(#115,#116),#117,.T.);
#100=ADVANCED_FACE('',(#118,#119),#120,.T.);
#101=ADVANCED_FACE('',(#121,#122),#123,.T.);
#102=ADVANCED_FACE('',(#124,#125),#126,.F.);
#103=ADVANCED_FACE('',(#127,#128),#129,.F.);
#104=ADVANCED_FACE('',(#130,#131),#132,.T.);
#105=ADVANCED_FACE('',(#133,#134),#135,.T.);
#106=ADVANCED_FACE('',(#136,#137),#138,.T.);
#107=ADVANCED_FACE('',(#139,#140),#141,.T.);
#108=ADVANCED_FACE('',(#142,#143),#144,.T.);
#109=ADVANCED_FACE('',(#145,#146),#147,.T.);
#110=ADVANCED_FACE('',(#148,#149),#150,.F.);
#111=ADVANCED_FACE('',(#151,#152),#153,.T.);
#112=ADVANCED_FACE('',(#154,#155),#156,.T.);
#113=ADVANCED_FACE('',(#157,#158),#159,.T.);
#115=FACE_OUTER_BOUND('',#160,.T.);
#116=FACE_BOUND('',#161,.T.);
#117=(B_SPLINE_SURFACE(3,3,((#163,#164,#165,#166,#167,#168,#169),(#170,#171,#172,#173,#174,#175,#176),(#177,#178,#179,#180,#181,#182,#183),(#184,#185,#186,#187,#188,#189,#190)),.UNSPECIFIED.,.F.,.T.,.F.)B_SPLINE_SURFACE_WITH_KNOTS((4,4),(4,3,4),(0.0,6.28318530717959),(0.805236721424646,1.94862040265434,3.09200408388404),.UNSPECIFIED.)RATIONAL_B_SPLINE_SURFACE(((1.0,0.333333333333333,0.333333333333333,1.0,0.333333333333333,0.333333333333333,1.0),(0.609678395426612,0.203226131808871,0.203226131808871,0.609678395426612,0.203226131808871,0.203226131808871,0.609678395426612),(0.609678395426612,0.203226131808871,0.203226131808871,0.609678395426612,0.203226131808871,0.203226131808871,0.609678395426612),(1.0,0.333333333333333,0.333333333333333,1.0,0.333333333333333,0.333333333333333,1.0)))BOUNDED_SURFACE()REPRESENTATION_ITEM('')GEOMETRIC_REPRESENTATION_ITEM()SURFACE());
#118=FACE_OUTER_BOUND('',#197,.T.);
#119=FACE_OUTER_BOUND('',#198,.T.);
#120=TOROIDAL_SURFACE('',#199,10.75299631326,8.23076475146954);
#121=FACE_BOUND('',#200,.T.);
#122=FACE_OUTER_BOUND('',#201,.T.);
#123=(B_SPLINE_SURFACE(3,3,((#203,#204,#205,#206,#207,#208,#209),(#210,#211,#212,#213,#214,#215,#216),(#217,#218,#219,#220,#221,#222,#223),(#224,#225,#226,#227,#228,#229,#230)),.UNSPECIFIED.,.F.,.T.,.F.)B_SPLINE_SURFACE_WITH_KNOTS((4,4),(4,3,4),(0.0,6.28318530717959),(-2.38335445203081,-1.55997204404248,-0.736589636054154),.UNSPECIFIED.)RATIONAL_B_SPLINE_SURFACE(((1.0,0.333333333333333,0.333333333333333,1.0,0.333333333333333,0.333333333333333,1.0),(0.786496183982138,0.262165394660713,0.262165394660713,0.786496183982138,0.262165394660713,0.262165394660713,0.786496183982138),(0.786496183982138,0.262165394660713,0.262165394660713,0.786496183982138,0.262165394660713,0.262165394660713,0.786496183982138),(1.0,0.333333333333333,0.333333333333333,1.0,0.333333333333333,0.333333333333333,1.0)))BOUNDED_SURFACE()REPRESENTATION_ITEM('')GEOMETRIC_REPRESENTATION_ITEM()SURFACE());
#124=FACE_OUTER_BOUND('',#237,.T.);
#125=FACE_OUTER_BOUND('',#238,.T.);
#126=TOROIDAL_SURFACE('',#239,14.113358933121,0.15);
#127=FACE_OUTER_BOUND('',#240,.T.);
#128=FACE_BOUND('',#241,.T.);
#129=CONICAL_SURFACE('',#242,14.2627881378347,0.0872664625997151);
#130=FACE_OUTER_BOUND('',#243,.T.);
#131=FACE_OUTER_BOUND('',#244,.T.);
#132=TOROIDAL_SURFACE('',#245,14.9158805001999,0.5);
#133=FACE_OUTER_BOUND('',#246,.T.);
#134=FACE_BOUND('',#247,.T.);
#135=PLANE('',#248);
#136=FACE_OUTER_BOUND('',#249,.T.);
#137=FACE_BOUND('',#250,.T.);
#138=CONICAL_SURFACE('',#251,16.2377197865257,0.0523598775598243);
#139=FACE_BOUND('',#252,.T.);
#140=FACE_OUTER_BOUND('',#253,.T.);
#141=PLANE('',#254);
#142=FACE_BOUND('',#255,.T.);
#143=FACE_OUTER_BOUND('',#256,.T.);
#144=CONICAL_SURFACE('',#257,15.3199999999995,0.104719755117148);
#145=FACE_BOUND('',#258,.T.);
#146=FACE_OUTER_BOUND('',#259,.T.);
#147=CONICAL_SURFACE('',#260,15.0884260746511,0.104719755084828);
#148=FACE_BOUND('',#261,.T.);
#149=FACE_OUTER_BOUND('',#262,.T.);
#150=CONICAL_SURFACE('',#263,15.0812900893956,1.41402460466371);
#151=FACE_OUTER_BOUND('',#264,.T.);
#152=FACE_BOUND('',#265,.T.);
#153=PLANE('',#266);
#154=FACE_OUTER_BOUND('',#267,.T.);
#155=FACE_OUTER_BOUND('',#268,.T.);
#156=(B_SPLINE_SURFACE(3,3,((#270,#271,#272,#273,#274,#275,#276),(#277,#278,#279,#280,#281,#282,#283),(#284,#285,#286,#287,#288,#289,#290),(#291,#292,#293,#294,#295,#296,#297)),.UNSPECIFIED.,.F.,.T.,.F.)B_SPLINE_SURFACE_WITH_KNOTS((4,4),(4,3,4),(0.0,6.28318530717959),(0.388245742866521,0.464818672108734,0.541391601350947),.UNSPECIFIED.)RATIONAL_B_SPLINE_SURFACE(((1.0,0.333333333333333,0.333333333333333,1.0,0.333333333333333,0.333333333333333,1.0),(0.998046483638508,0.332682161212836,0.332682161212836,0.998046483638508,0.332682161212836,0.332682161212836,0.998046483638508),(0.998046483638508,0.332682161212836,0.332682161212836,0.998046483638508,0.332682161212836,0.332682161212836,0.998046483638508),(1.0,0.333333333333333,0.333333333333333,1.0,0.333333333333333,0.333333333333333,1.0)))BOUNDED_SURFACE()REPRESENTATION_ITEM('')GEOMETRIC_REPRESENTATION_ITEM()SURFACE());
#157=FACE_OUTER_BOUND('',#304,.T.);
#158=FACE_BOUND('',#305,.T.);
#159=CONICAL_SURFACE('',#306,13.0032541112418,0.404017031387636);
#160=EDGE_LOOP('',(#307));
#161=VERTEX_LOOP('',#308);
#163=CARTESIAN_POINT('',(0.0,7.24273638100001,0.0));
#164=CARTESIAN_POINT('',(0.0,7.24273638100001,0.0));
#165=CARTESIAN_POINT('',(0.0,7.24273638100001,0.0));
#166=CARTESIAN_POINT('',(0.0,7.24273638100001,0.0));
#167=CARTESIAN_POINT('',(0.0,7.24273638100001,0.0));
#168=CARTESIAN_POINT('',(0.0,7.24273638100001,0.0));
#169=CARTESIAN_POINT('',(0.0,7.24273638100001,0.0));
#170=CARTESIAN_POINT('',(0.0,5.74132682959665,-0.0745138393739113));
#171=CARTESIAN_POINT('',(0.149027678747823,5.74132682959665,-0.0745138393739113));
#172=CARTESIAN_POINT('',(0.149027678747823,5.74132682959665,0.0745138393739113));
#173=CARTESIAN_POINT('',(0.0,5.74132682959665,0.0745138393739113));
#174=CARTESIAN_POINT('',(-0.149027678747823,5.74132682959665,0.0745138393739113));
#175=CARTESIAN_POINT('',(-0.149027678747823,5.74132682959665,-0.0745138393739113));
#176=CARTESIAN_POINT('',(0.0,5.74132682959665,-0.0745138393739113));
#177=CARTESIAN_POINT('',(0.0,5.18677682717178,-1.4717458344678));
#178=CARTESIAN_POINT('',(2.9434916689356,5.18677682717178,-1.4717458344678));
#179=CARTESIAN_POINT('',(2.9434916689356,5.18677682717178,1.4717458344678));
#180=CARTESIAN_POINT('',(0.0,5.18677682717178,1.4717458344678));
#181=CARTESIAN_POINT('',(-2.9434916689356,5.18677682717178,1.4717458344678));
#182=CARTESIAN_POINT('',(-2.9434916689356,5.18677682717178,-1.4717458344678));
#183=CARTESIAN_POINT('',(0.0,5.18677682717178,-1.4717458344678));
#184=CARTESIAN_POINT('',(0.0,6.22844491401335,-2.55558648242269));
#185=CARTESIAN_POINT('',(5.11117296484539,6.22844491401335,-2.55558648242269));
#186=CARTESIAN_POINT('',(5.11117296484539,6.22844491401335,2.55558648242269));
#187=CARTESIAN_POINT('',(0.0,6.22844491401335,2.55558648242269));
#188=CARTESIAN_POINT('',(-5.11117296484539,6.22844491401335,2.55558648242269));
#189=CARTESIAN_POINT('',(-5.11117296484539,6.22844491401335,-2.55558648242269));
#190=CARTESIAN_POINT('',(0.0,6.22844491401335,-2.55558648242269));
#197=EDGE_LOOP('',(#309));
#198=EDGE_LOOP('',(#310));
#199=AXIS2_PLACEMENT_3D('',#311,#312,#313);
#200=VERTEX_LOOP('',#314);
#201=EDGE_LOOP('',(#315));
#203=CARTESIAN_POINT('',(0.0,16.24742124001,-4.6190633350633));
#204=CARTESIAN_POINT('',(9.23812667012661,16.24742124001,-4.6190633350633));
#205=CARTESIAN_POINT('',(9.23812667012661,16.24742124001,4.6190633350633));
#206=CARTESIAN_POINT('',(0.0,16.24742124001,4.6190633350633));
#207=CARTESIAN_POINT('',(-9.23812667012661,16.24742124001,4.6190633350633));
#208=CARTESIAN_POINT('',(-9.23812667012661,16.24742124001,-4.6190633350633));
#209=CARTESIAN_POINT('',(0.0,16.24742124001,-4.6190633350633));
#210=CARTESIAN_POINT('',(0.0,17.6976658231123,-3.30390145395312));
#211=CARTESIAN_POINT('',(6.60780290790623,17.6976658231123,-3.30390145395312));
#212=CARTESIAN_POINT('',(6.60780290790623,17.6976658231123,3.30390145395312));
#213=CARTESIAN_POINT('',(0.0,17.6976658231123,3.30390145395312));
#214=CARTESIAN_POINT('',(-6.60780290790623,17.6976658231123,3.30390145395312));
#215=CARTESIAN_POINT('',(-6.60780290790623,17.6976658231123,-3.30390145395312));
#216=CARTESIAN_POINT('',(0.0,17.6976658231123,-3.30390145395312));
#217=CARTESIAN_POINT('',(0.0,17.7188568563621,-1.34624697359851));
#218=CARTESIAN_POINT('',(2.69249394719702,17.7188568563621,-1.34624697359851));
#219=CARTESIAN_POINT('',(2.69249394719702,17.7188568563621,1.34624697359851));
#220=CARTESIAN_POINT('',(0.0,17.7188568563621,1.34624697359851));
#221=CARTESIAN_POINT('',(-2.69249394719702,17.7188568563621,1.34624697359851));
#222=CARTESIAN_POINT('',(-2.69249394719702,17.7188568563621,-1.34624697359851));
#223=CARTESIAN_POINT('',(0.0,17.7188568563621,-1.34624697359851));
#224=CARTESIAN_POINT('',(0.0,16.297421240367,0.0));
#225=CARTESIAN_POINT('',(0.0,16.297421240367,0.0));
#226=CARTESIAN_POINT('',(0.0,16.297421240367,0.0));
#227=CARTESIAN_POINT('',(0.0,16.297421240367,0.0));
#228=CARTESIAN_POINT('',(0.0,16.297421240367,0.0));
#229=CARTESIAN_POINT('',(0.0,16.297421240367,0.0));
#230=CARTESIAN_POINT('',(0.0,16.297421240367,0.0));
#237=EDGE_LOOP('',(#316));
#238=EDGE_LOOP('',(#317));
#239=AXIS2_PLACEMENT_3D('',#318,#319,#320);
#240=EDGE_LOOP('',(#321));
#241=EDGE_LOOP('',(#322));
#242=AXIS2_PLACEMENT_3D('',#323,#324,#325);
#243=EDGE_LOOP('',(#326));
#244=EDGE_LOOP('',(#327));
#245=AXIS2_PLACEMENT_3D('',#328,#329,#330);
#246=EDGE_LOOP('',(#331));
#247=EDGE_LOOP('',(#332));
#248=AXIS2_PLACEMENT_3D('',#333,#334,#335);
#249=EDGE_LOOP('',(#336));
#250=EDGE_LOOP('',(#337));
#251=AXIS2_PLACEMENT_3D('',#338,#339,#340);
#252=EDGE_LOOP('',(#341));
#253=EDGE_LOOP('',(#342));
#254=AXIS2_PLACEMENT_3D('',#343,#344,#345);
#255=EDGE_LOOP('',(#346));
#256=EDGE_LOOP('',(#347));
#257=AXIS2_PLACEMENT_3D('',#348,#349,#350);
#258=EDGE_LOOP('',(#351));
#259=EDGE_LOOP('',(#352));
#260=AXIS2_PLACEMENT_3D('',#353,#354,#355);
#261=EDGE_LOOP('',(#356));
#262=EDGE_LOOP('',(#357));
#263=AXIS2_PLACEMENT_3D('',#358,#359,#360);
#264=EDGE_LOOP('',(#361));
#265=EDGE_LOOP('',(#362));
#266=AXIS2_PLACEMENT_3D('',#363,#364,#365);
#267=EDGE_LOOP('',(#366));
#268=EDGE_LOOP('',(#367));
#270=CARTESIAN_POINT('',(0.0,-4.85722573273506E-14,-5.95266060956104));
#271=CARTESIAN_POINT('',(11.9053212191221,-4.85722573273506E-14,-5.95266060956104));
#272=CARTESIAN_POINT('',(11.9053212191221,-4.85722573273506E-14,5.95266060956104));
#273=CARTESIAN_POINT('',(0.0,-4.85722573273506E-14,5.95266060956104));
#274=CARTESIAN_POINT('',(-11.9053212191221,-4.85722573273506E-14,5.95266060956104));
#275=CARTESIAN_POINT('',(-11.9053212191221,-4.85722573273506E-14,-5.95266060956104));
#276=CARTESIAN_POINT('',(0.0,-4.85722573273506E-14,-5.95266060956104));
#277=CARTESIAN_POINT('',(0.0,4.50194234549754,-8.6597813187329));
#278=CARTESIAN_POINT('',(17.3195626374658,4.50194234549754,-8.6597813187329));
#279=CARTESIAN_POINT('',(17.3195626374658,4.50194234549754,8.6597813187329));
#280=CARTESIAN_POINT('',(0.0,4.50194234549754,8.6597813187329));
#281=CARTESIAN_POINT('',(-17.3195626374658,4.50194234549754,8.6597813187329));
#282=CARTESIAN_POINT('',(-17.3195626374658,4.50194234549754,-8.6597813187329));
#283=CARTESIAN_POINT('',(0.0,4.50194234549754,-8.6597813187329));
#284=CARTESIAN_POINT('',(0.0,9.1977824125662,-11.0145792889894));
#285=CARTESIAN_POINT('',(22.0291585779788,9.1977824125662,-11.0145792889894));
#286=CARTESIAN_POINT('',(22.0291585779788,9.1977824125662,11.0145792889894));
#287=CARTESIAN_POINT('',(0.0,9.1977824125662,11.0145792889894));
#288=CARTESIAN_POINT('',(-22.0291585779788,9.1977824125662,11.0145792889894));
#289=CARTESIAN_POINT('',(-22.0291585779788,9.1977824125662,-11.0145792889894));
#290=CARTESIAN_POINT('',(0.0,9.1977824125662,-11.0145792889894));
#291=CARTESIAN_POINT('',(0.0,14.06,-13.0032541112419));
#292=CARTESIAN_POINT('',(26.0065082224837,14.06,-13.0032541112419));
#293=CARTESIAN_POINT('',(26.0065082224837,14.06,13.0032541112419));
#294=CARTESIAN_POINT('',(0.0,14.06,13.0032541112419));
#295=CARTESIAN_POINT('',(-26.0065082224837,14.06,13.0032541112419));
#296=CARTESIAN_POINT('',(-26.0065082224837,14.06,-13.0032541112419));
#297=CARTESIAN_POINT('',(0.0,14.06,-13.0032541112419));
#304=EDGE_LOOP('',(#368));
#305=EDGE_LOOP('',(#369));
#306=AXIS2_PLACEMENT_3D('',#370,#371,#372);
#307=ORIENTED_EDGE('',*,*,#373,.T.);
#308=VERTEX_POINT('',#374);
#309=ORIENTED_EDGE('',*,*,#375,.T.);
#310=ORIENTED_EDGE('',*,*,#373,.F.);
#311=CARTESIAN_POINT('',(0.0,5.4882014004816,0.0));
#312=DIRECTION('',(0.0,-1.0,0.0));
#313=DIRECTION('',(0.0,0.0,-1.0));
#314=VERTEX_POINT('',#376);
#315=ORIENTED_EDGE('',*,*,#377,.F.);
#316=ORIENTED_EDGE('',*,*,#378,.T.);
#317=ORIENTED_EDGE('',*,*,#379,.F.);
#318=CARTESIAN_POINT('',(0.0,16.2749498761208,0.0));
#319=DIRECTION('',(0.0,-1.0,0.0));
#320=DIRECTION('',(0.0,0.0,-1.0));
#321=ORIENTED_EDGE('',*,*,#380,.T.);
#322=ORIENTED_EDGE('',*,*,#378,.F.);
#323=CARTESIAN_POINT('',(0.0,16.288023237533,0.0));
#324=DIRECTION('',(0.0,-1.0,-0.0));
#325=DIRECTION('',(0.0,0.0,-1.0));
#326=ORIENTED_EDGE('',*,*,#381,.T.);
#327=ORIENTED_EDGE('',*,*,#380,.F.);
#328=CARTESIAN_POINT('',(0.0,14.56,0.0));
#329=DIRECTION('',(0.0,-1.0,0.0));
#330=DIRECTION('',(0.0,0.0,-1.0));
#331=ORIENTED_EDGE('',*,*,#382,.T.);
#332=ORIENTED_EDGE('',*,*,#381,.F.);
#333=CARTESIAN_POINT('',(15.5768001433628,14.06,0.0));
#334=DIRECTION('',(0.0,-1.0,0.0));
#335=DIRECTION('',(0.0,0.0,-1.0));
#336=ORIENTED_EDGE('',*,*,#383,.T.);
#337=ORIENTED_EDGE('',*,*,#382,.F.);
#338=CARTESIAN_POINT('',(0.0,14.06,0.0));
#339=DIRECTION('',(-0.0,1.0,-0.0));
#340=DIRECTION('',(0.0,0.0,1.0));
#341=ORIENTED_EDGE('',*,*,#384,.T.);
#342=ORIENTED_EDGE('',*,*,#383,.F.);
#343=CARTESIAN_POINT('',(15.82,15.63,0.0));
#344=DIRECTION('',(0.0,1.0,0.0));
#345=DIRECTION('',(0.0,0.0,1.0));
#346=ORIENTED_EDGE('',*,*,#385,.T.);
#347=ORIENTED_EDGE('',*,*,#384,.F.);
#348=CARTESIAN_POINT('',(0.0,15.63,0.0));
#349=DIRECTION('',(0.0,-1.0,-0.0));
#350=DIRECTION('',(0.0,0.0,-1.0));
#351=ORIENTED_EDGE('',*,*,#386,.T.);
#352=ORIENTED_EDGE('',*,*,#385,.F.);
#353=CARTESIAN_POINT('',(0.0,17.8332787239126,0.0));
#354=DIRECTION('',(0.0,-1.0,-0.0));
#355=DIRECTION('',(0.0,0.0,-1.0));
#356=ORIENTED_EDGE('',*,*,#377,.T.);
#357=ORIENTED_EDGE('',*,*,#386,.F.);
#358=CARTESIAN_POINT('',(0.0,17.9011730883957,0.0));
#359=DIRECTION('',(-0.0,1.0,-0.0));
#360=DIRECTION('',(0.0,0.0,1.0));
#361=ORIENTED_EDGE('',*,*,#387,.T.);
#362=ORIENTED_EDGE('',*,*,#375,.F.);
#363=CARTESIAN_POINT('',(5.28586197228052,-1.73880630521648E-14,0.0));
#364=DIRECTION('',(0.0,-1.0,0.0));
#365=DIRECTION('',(0.0,0.0,-1.0));
#366=ORIENTED_EDGE('',*,*,#388,.T.);
#367=ORIENTED_EDGE('',*,*,#387,.F.);
#368=ORIENTED_EDGE('',*,*,#379,.T.);
#369=ORIENTED_EDGE('',*,*,#388,.F.);
#370=CARTESIAN_POINT('',(0.0,14.06,0.0));
#371=DIRECTION('',(-0.0,1.0,-0.0));
#372=DIRECTION('',(0.0,0.0,1.0));
#373=EDGE_CURVE('',#389,#389,#390,.T.);
#374=CARTESIAN_POINT('',(0.0,7.242736381,0.0));
#375=EDGE_CURVE('',#391,#391,#392,.T.);
#376=CARTESIAN_POINT('',(1.53075795351287E-18,16.2974212403669,0.0));
#377=EDGE_CURVE('',#393,#393,#394,.T.);
#378=EDGE_CURVE('',#395,#395,#396,.T.);
#379=EDGE_CURVE('',#397,#397,#398,.T.);
#380=EDGE_CURVE('',#399,#399,#400,.T.);
#381=EDGE_CURVE('',#401,#401,#402,.T.);
#382=EDGE_CURVE('',#403,#403,#404,.T.);
#383=EDGE_CURVE('',#405,#405,#406,.T.);
#384=EDGE_CURVE('',#407,#407,#408,.T.);
#385=EDGE_CURVE('',#409,#409,#410,.T.);
#386=EDGE_CURVE('',#411,#411,#412,.T.);
#387=EDGE_CURVE('',#413,#413,#414,.T.);
#388=EDGE_CURVE('',#415,#415,#416,.T.);
#389=VERTEX_POINT('',#417);
#390=CIRCLE('',#418,2.5555864824227);
#391=VERTEX_POINT('',#419);
#392=CIRCLE('',#420,4.619063335);
#393=VERTEX_POINT('',#421);
#394=CIRCLE('',#422,4.61906333506331);
#395=VERTEX_POINT('',#423);
#396=CIRCLE('',#424,14.2627881378347);
#397=VERTEX_POINT('',#425);
#398=CIRCLE('',#426,13.97524051);
#399=VERTEX_POINT('',#427);
#400=CIRCLE('',#428,14.417783151154);
#401=VERTEX_POINT('',#429);
#402=CIRCLE('',#430,14.9158805001999);
#403=VERTEX_POINT('',#431);
#404=CIRCLE('',#432,16.2377197865257);
#405=VERTEX_POINT('',#433);
#406=CIRCLE('',#434,16.32);
#407=VERTEX_POINT('',#435);
#408=CIRCLE('',#436,15.3199999999995);
#409=VERTEX_POINT('',#437);
#410=CIRCLE('',#438,15.0884260746511);
#411=VERTEX_POINT('',#439);
#412=CIRCLE('',#440,15.0812900893956);
#413=VERTEX_POINT('',#441);
#414=CIRCLE('',#442,5.95266060956098);
#415=VERTEX_POINT('',#443);
#416=CIRCLE('',#444,13.0032541112418);
#417=CARTESIAN_POINT('',(0.0,6.22844491401335,-2.5555864824227));
#418=AXIS2_PLACEMENT_3D('',#445,#446,#447);
#419=CARTESIAN_POINT('',(0.0,-8.16565847933833E-17,-4.619063335));
#420=AXIS2_PLACEMENT_3D('',#448,#449,#450);
#421=CARTESIAN_POINT('',(0.0,16.2474212400101,-4.61906333506331));
#422=AXIS2_PLACEMENT_3D('',#451,#452,#453);
#423=CARTESIAN_POINT('',(0.0,16.288023237533,-14.2627881378347));
#424=AXIS2_PLACEMENT_3D('',#454,#455,#456);
#425=CARTESIAN_POINT('',(0.0,16.33345886,-13.97524051));
#426=AXIS2_PLACEMENT_3D('',#457,#458,#459);
#427=CARTESIAN_POINT('',(0.0,14.5164221286262,-14.417783151154));
#428=AXIS2_PLACEMENT_3D('',#460,#461,#462);
#429=CARTESIAN_POINT('',(0.0,14.06,-14.9158805001999));
#430=AXIS2_PLACEMENT_3D('',#463,#464,#465);
#431=CARTESIAN_POINT('',(0.0,14.06,-16.2377197865257));
#432=AXIS2_PLACEMENT_3D('',#466,#467,#468);
#433=CARTESIAN_POINT('',(0.0,15.63,-16.32));
#434=AXIS2_PLACEMENT_3D('',#469,#470,#471);
#435=CARTESIAN_POINT('',(0.0,15.63,-15.3199999999995));
#436=AXIS2_PLACEMENT_3D('',#472,#473,#474);
#437=CARTESIAN_POINT('',(0.0,17.8332787239126,-15.0884260746511));
#438=AXIS2_PLACEMENT_3D('',#475,#476,#477);
#439=CARTESIAN_POINT('',(0.0,17.9011730883957,-15.0812900893956));
#440=AXIS2_PLACEMENT_3D('',#478,#479,#480);
#441=CARTESIAN_POINT('',(0.0,-3.46944695195361E-14,-5.95266060956098));
#442=AXIS2_PLACEMENT_3D('',#481,#482,#483);
#443=CARTESIAN_POINT('',(0.0,14.06,-13.0032541112418));
#444=AXIS2_PLACEMENT_3D('',#484,#485,#486);
#445=CARTESIAN_POINT('',(0.0,6.22844491401335,0.0));
#446=DIRECTION('',(0.0,-1.0,0.0));
#447=DIRECTION('',(0.0,0.0,-1.0));
#448=CARTESIAN_POINT('',(0.0,-8.16565847933833E-17,0.0));
#449=DIRECTION('',(0.0,-1.0,0.0));
#450=DIRECTION('',(0.0,0.0,-1.0));
#451=CARTESIAN_POINT('',(0.0,16.2474212400101,0.0));
#452=DIRECTION('',(0.0,-1.0,0.0));
#453=DIRECTION('',(0.0,0.0,-1.0));
#454=CARTESIAN_POINT('',(0.0,16.288023237533,0.0));
#455=DIRECTION('',(0.0,-1.0,0.0));
#456=DIRECTION('',(0.0,0.0,-1.0));
#457=CARTESIAN_POINT('',(0.0,16.33345886,0.0));
#458=DIRECTION('',(0.0,-1.0,0.0));
#459=DIRECTION('',(0.0,0.0,-1.0));
#460=CARTESIAN_POINT('',(0.0,14.5164221286262,0.0));
#461=DIRECTION('',(0.0,-1.0,0.0));
#462=DIRECTION('',(0.0,0.0,-1.0));
#463=CARTESIAN_POINT('',(0.0,14.06,0.0));
#464=DIRECTION('',(0.0,-1.0,0.0));
#465=DIRECTION('',(0.0,0.0,-1.0));
#466=CARTESIAN_POINT('',(0.0,14.06,0.0));
#467=DIRECTION('',(0.0,-1.0,0.0));
#468=DIRECTION('',(0.0,0.0,-1.0));
#469=CARTESIAN_POINT('',(0.0,15.63,0.0));
#470=DIRECTION('',(0.0,-1.0,0.0));
#471=DIRECTION('',(0.0,0.0,-1.0));
#472=CARTESIAN_POINT('',(0.0,15.63,0.0));
#473=DIRECTION('',(0.0,-1.0,0.0));
#474=DIRECTION('',(0.0,0.0,-1.0));
#475=CARTESIAN_POINT('',(0.0,17.8332787239126,0.0));
#476=DIRECTION('',(0.0,-1.0,0.0));
#477=DIRECTION('',(0.0,0.0,-1.0));
#478=CARTESIAN_POINT('',(0.0,17.9011730883957,0.0));
#479=DIRECTION('',(0.0,-1.0,0.0));
#480=DIRECTION('',(0.0,0.0,-1.0));
#481=CARTESIAN_POINT('',(0.0,-3.46944695195361E-14,0.0));
#482=DIRECTION('',(0.0,-1.0,0.0));
#483=DIRECTION('',(0.0,0.0,-1.0));
#484=CARTESIAN_POINT('',(0.0,14.06,0.0));
#485=DIRECTION('',(0.0,-1.0,0.0));
#486=DIRECTION('',(0.0,0.0,-1.0));
ENDSEC;
END-ISO-10303-21;
