ISO-10303-21;
HEADER;
FILE_DESCRIPTION(('STEP AP214'),'1');
FILE_NAME('70 DFN client.stp','2015-03-20T11:13:16',(' '),(' '),'Spatial InterOp 3D',' ',' ');
FILE_SCHEMA(('automotive_design'));
ENDSEC;
DATA;
#1=MECHANICAL_DESIGN_GEOMETRIC_PRESENTATION_REPRESENTATION(' ',(#10,#11,#12,#13,#14,#15,#16,#17,#18,#19,#20,#21,#22),#6);
#2=PRODUCT_DEFINITION_CONTEXT('',#23,'design');
#3=APPLICATION_PROTOCOL_DEFINITION('INTERNATIONAL STANDARD','automotive_design',1994,#23);
#4=PRODUCT_CATEGORY_RELATIONSHIP('NONE','NONE',#24,#25);
#5=SHAPE_DEFINITION_REPRESENTATION(#26,#27);
#6= (GEOMETRIC_REPRESENTATION_CONTEXT(3)GLOBAL_UNCERTAINTY_ASSIGNED_CONTEXT((#30))GLOBAL_UNIT_ASSIGNED_CONTEXT((#32,#33,#34))REPRESENTATION_CONTEXT('NONE','WORKSPACE'));
#10=STYLED_ITEM('',(#36),#37);
#11=STYLED_ITEM('',(#38),#39);
#12=STYLED_ITEM('',(#40),#41);
#13=STYLED_ITEM('',(#42),#43);
#14=STYLED_ITEM('',(#44),#45);
#15=STYLED_ITEM('',(#46),#47);
#16=STYLED_ITEM('',(#48),#49);
#17=STYLED_ITEM('',(#50),#51);
#18=STYLED_ITEM('',(#52),#53);
#19=STYLED_ITEM('',(#54),#55);
#20=STYLED_ITEM('',(#56),#57);
#21=STYLED_ITEM('',(#58),#59);
#22=STYLED_ITEM('',(#60),#61);
#23=APPLICATION_CONTEXT(' ');
#24=PRODUCT_CATEGORY('part','NONE');
#25=PRODUCT_RELATED_PRODUCT_CATEGORY('detail',' ',(#62));
#26=PRODUCT_DEFINITION_SHAPE('NONE','NONE',#63);
#27=ADVANCED_BREP_SHAPE_REPRESENTATION('ULTRA NARROW BEAM SH70 COLLIMATOR \X2\00D8\X0\70',(#64,#65),#6);
#30=UNCERTAINTY_MEASURE_WITH_UNIT(LENGTH_MEASURE(0.001),#32,'','');
#32= (CONVERSION_BASED_UNIT('MILLIMETRE',#68)LENGTH_UNIT()NAMED_UNIT(#71));
#33= (NAMED_UNIT(#73)PLANE_ANGLE_UNIT()SI_UNIT($,.RADIAN.));
#34= (NAMED_UNIT(#73)SOLID_ANGLE_UNIT()SI_UNIT($,.STERADIAN.));
#36=PRESENTATION_STYLE_ASSIGNMENT((#79));
#37=ADVANCED_FACE('',(#80,#81),#82,.T.);
#38=PRESENTATION_STYLE_ASSIGNMENT((#83));
#39=ADVANCED_FACE('',(#84,#85),#86,.T.);
#40=PRESENTATION_STYLE_ASSIGNMENT((#87));
#41=ADVANCED_FACE('',(#88,#89),#90,.F.);
#42=PRESENTATION_STYLE_ASSIGNMENT((#91));
#43=ADVANCED_FACE('',(#92),#93,.T.);
#44=PRESENTATION_STYLE_ASSIGNMENT((#94));
#45=ADVANCED_FACE('',(#95,#96),#97,.T.);
#46=PRESENTATION_STYLE_ASSIGNMENT((#98));
#47=ADVANCED_FACE('',(#99,#100),#101,.T.);
#48=PRESENTATION_STYLE_ASSIGNMENT((#102));
#49=ADVANCED_FACE('',(#103,#104),#105,.T.);
#50=PRESENTATION_STYLE_ASSIGNMENT((#106));
#51=ADVANCED_FACE('',(#107,#108),#109,.T.);
#52=PRESENTATION_STYLE_ASSIGNMENT((#110));
#53=ADVANCED_FACE('',(#111,#112),#113,.T.);
#54=PRESENTATION_STYLE_ASSIGNMENT((#114));
#55=ADVANCED_FACE('',(#115,#116),#117,.T.);
#56=PRESENTATION_STYLE_ASSIGNMENT((#118));
#57=ADVANCED_FACE('',(#119,#120),#121,.T.);
#58=PRESENTATION_STYLE_ASSIGNMENT((#122));
#59=ADVANCED_FACE('',(#123,#124),#125,.T.);
#60=PRESENTATION_STYLE_ASSIGNMENT((#126));
#61=ADVANCED_FACE('',(#127,#128),#129,.T.);
#62=PRODUCT('ULTRA NARROW BEAM SH70 COLLIMATOR \X2\00D8\X0\70','ULTRA NARROW BEAM SH70 COLLIMATOR \X2\00D8\X0\70','PART-ULTRA NARROW BEAM SH70 COLLIMATOR \X2\00D8\X0\70-DESC',(#130));
#63=PRODUCT_DEFINITION('NONE','NONE',#131,#2);
#64=MANIFOLD_SOLID_BREP('ULTRA NARROW BEAM SH70 COLLIMATOR \X2\00D8\X0\70',#132);
#65=AXIS2_PLACEMENT_3D('',#133,#134,#135);
#68=LENGTH_MEASURE_WITH_UNIT(LENGTH_MEASURE(1.0),#136);
#71=DIMENSIONAL_EXPONENTS(1.0,0.0,0.0,0.0,0.0,0.0,0.0);
#73=DIMENSIONAL_EXPONENTS(0.0,0.0,0.0,0.0,0.0,0.0,0.0);
#79=SURFACE_STYLE_USAGE(.BOTH.,#137);
#80=FACE_OUTER_BOUND('',#138,.T.);
#81=FACE_OUTER_BOUND('',#139,.T.);
#82=CYLINDRICAL_SURFACE('',#140,33.59);
#83=SURFACE_STYLE_USAGE(.BOTH.,#141);
#84=FACE_OUTER_BOUND('',#142,.T.);
#85=FACE_OUTER_BOUND('',#143,.T.);
#86=SURFACE_OF_REVOLUTION('',#144,#145);
#87=SURFACE_STYLE_USAGE(.BOTH.,#146);
#88=FACE_OUTER_BOUND('',#147,.T.);
#89=FACE_OUTER_BOUND('',#148,.T.);
#90=TOROIDAL_SURFACE('',#149,11.1462215929124,0.25);
#91=SURFACE_STYLE_USAGE(.BOTH.,#150);
#92=FACE_OUTER_BOUND('',#151,.T.);
#93=PLANE('',#152);
#94=SURFACE_STYLE_USAGE(.BOTH.,#153);
#95=FACE_OUTER_BOUND('',#154,.T.);
#96=FACE_BOUND('',#155,.T.);
#97=PLANE('',#156);
#98=SURFACE_STYLE_USAGE(.BOTH.,#157);
#99=FACE_OUTER_BOUND('',#158,.T.);
#100=FACE_BOUND('',#159,.T.);
#101=SURFACE_OF_REVOLUTION('',#160,#161);
#102=SURFACE_STYLE_USAGE(.BOTH.,#162);
#103=FACE_BOUND('',#163,.T.);
#104=FACE_OUTER_BOUND('',#164,.T.);
#105=CONICAL_SURFACE('',#165,31.59,0.0872664625997163);
#106=SURFACE_STYLE_USAGE(.BOTH.,#166);
#107=FACE_OUTER_BOUND('',#167,.T.);
#108=FACE_OUTER_BOUND('',#168,.T.);
#109=SURFACE_OF_REVOLUTION('',#169,#170);
#110=SURFACE_STYLE_USAGE(.BOTH.,#171);
#111=FACE_BOUND('',#172,.T.);
#112=FACE_OUTER_BOUND('',#173,.T.);
#113=SURFACE_OF_REVOLUTION('',#174,#175);
#114=SURFACE_STYLE_USAGE(.BOTH.,#176);
#115=FACE_OUTER_BOUND('',#177,.T.);
#116=FACE_BOUND('',#178,.T.);
#117=PLANE('',#179);
#118=SURFACE_STYLE_USAGE(.BOTH.,#180);
#119=FACE_BOUND('',#181,.T.);
#120=FACE_OUTER_BOUND('',#182,.T.);
#121=PLANE('',#183);
#122=SURFACE_STYLE_USAGE(.BOTH.,#184);
#123=FACE_OUTER_BOUND('',#185,.T.);
#124=FACE_OUTER_BOUND('',#186,.T.);
#125=TOROIDAL_SURFACE('',#187,30.928920210959,0.5);
#126=SURFACE_STYLE_USAGE(.BOTH.,#188);
#127=FACE_OUTER_BOUND('',#189,.T.);
#128=FACE_OUTER_BOUND('',#190,.T.);
#129=CYLINDRICAL_SURFACE('',#191,0.3);
#130=PRODUCT_CONTEXT('',#23,'mechanical');
#131=PRODUCT_DEFINITION_FORMATION_WITH_SPECIFIED_SOURCE(' ','NONE',#62,.NOT_KNOWN.);
#132=CLOSED_SHELL('',(#53,#47,#39,#51,#41,#55,#37,#57,#49,#59,#61,#45,#43));
#133=CARTESIAN_POINT('',(0.0,0.0,0.0));
#134=DIRECTION('',(0.0,0.0,1.0));
#135=DIRECTION('',(1.0,0.0,0.0));
#136= (NAMED_UNIT(#71)LENGTH_UNIT()SI_UNIT(.MILLI.,.METRE.));
#137=SURFACE_SIDE_STYLE('',(#193));
#138=EDGE_LOOP('',(#194));
#139=EDGE_LOOP('',(#195));
#140=AXIS2_PLACEMENT_3D('',#196,#197,#198);
#141=SURFACE_SIDE_STYLE('',(#199));
#142=EDGE_LOOP('',(#200));
#143=EDGE_LOOP('',(#201));
#144=B_SPLINE_CURVE_WITH_KNOTS('',3,(#202,#203,#204,#205,#206,#207,#208,#209,#210,#211,#212,#213,#214),.UNSPECIFIED.,.F.,.F.,(4,3,3,3,4),(0.0,1.0,2.0,3.0,4.0),.UNSPECIFIED.);
#145=AXIS1_PLACEMENT('',#215,#216);
#146=SURFACE_SIDE_STYLE('',(#217));
#147=EDGE_LOOP('',(#218));
#148=EDGE_LOOP('',(#219));
#149=AXIS2_PLACEMENT_3D('',#220,#221,#222);
#150=SURFACE_SIDE_STYLE('',(#223));
#151=EDGE_LOOP('',(#224));
#152=AXIS2_PLACEMENT_3D('',#225,#226,#227);
#153=SURFACE_SIDE_STYLE('',(#228));
#154=EDGE_LOOP('',(#229));
#155=EDGE_LOOP('',(#230));
#156=AXIS2_PLACEMENT_3D('',#231,#232,#233);
#157=SURFACE_SIDE_STYLE('',(#234));
#158=EDGE_LOOP('',(#235));
#159=EDGE_LOOP('',(#236));
#160=B_SPLINE_CURVE_WITH_KNOTS('',3,(#237,#238,#239,#240,#241,#242,#243,#244,#245,#246,#247,#248,#249,#250,#251,#252),.UNSPECIFIED.,.F.,.F.,(4,3,3,3,3,4),(0.0,1.0,2.0,3.0,4.0,5.0),.UNSPECIFIED.);
#161=AXIS1_PLACEMENT('',#253,#254);
#162=SURFACE_SIDE_STYLE('',(#255));
#163=EDGE_LOOP('',(#256));
#164=EDGE_LOOP('',(#257));
#165=AXIS2_PLACEMENT_3D('',#258,#259,#260);
#166=SURFACE_SIDE_STYLE('',(#261));
#167=EDGE_LOOP('',(#262));
#168=EDGE_LOOP('',(#263));
#169=B_SPLINE_CURVE_WITH_KNOTS('',3,(#264,#265,#266,#267,#268,#269,#270,#271,#272,#273,#274,#275,#276,#277,#278,#279),.UNSPECIFIED.,.F.,.F.,(4,3,3,3,3,4),(0.0,1.0,2.0,3.0,4.0,5.0),.UNSPECIFIED.);
#170=AXIS1_PLACEMENT('',#280,#281);
#171=SURFACE_SIDE_STYLE('',(#282));
#172=VERTEX_LOOP('',#283);
#173=EDGE_LOOP('',(#284));
#174=B_SPLINE_CURVE_WITH_KNOTS('',3,(#285,#286,#287,#288,#289,#290,#291,#292,#293,#294,#295,#296,#297,#298,#299,#300,#301,#302,#303,#304,#305,#306),.UNSPECIFIED.,.F.,.F.,(4,3,3,3,3,3,3,4),(0.0,1.0,2.0,3.0,4.0,5.0,6.0,7.0),.UNSPECIFIED.);
#175=AXIS1_PLACEMENT('',#307,#308);
#176=SURFACE_SIDE_STYLE('',(#309));
#177=EDGE_LOOP('',(#310));
#178=EDGE_LOOP('',(#311));
#179=AXIS2_PLACEMENT_3D('',#312,#313,#314);
#180=SURFACE_SIDE_STYLE('',(#315));
#181=EDGE_LOOP('',(#316));
#182=EDGE_LOOP('',(#317));
#183=AXIS2_PLACEMENT_3D('',#318,#319,#320);
#184=SURFACE_SIDE_STYLE('',(#321));
#185=EDGE_LOOP('',(#322));
#186=EDGE_LOOP('',(#323));
#187=AXIS2_PLACEMENT_3D('',#324,#325,#326);
#188=SURFACE_SIDE_STYLE('',(#327));
#189=EDGE_LOOP('',(#328));
#190=EDGE_LOOP('',(#329));
#191=AXIS2_PLACEMENT_3D('',#330,#331,#332);
#193=SURFACE_STYLE_FILL_AREA(#333);
#194=ORIENTED_EDGE('',*,*,#334,.T.);
#195=ORIENTED_EDGE('',*,*,#335,.F.);
#196=CARTESIAN_POINT('',(0.0,0.0,0.0));
#197=DIRECTION('',(0.0,-1.0,0.0));
#198=DIRECTION('',(0.0,0.0,-1.0));
#199=SURFACE_STYLE_FILL_AREA(#336);
#200=ORIENTED_EDGE('',*,*,#337,.T.);
#201=ORIENTED_EDGE('',*,*,#338,.T.);
#202=CARTESIAN_POINT('',(-13.2155859545002,-6.24500451351651E-014,0.0));
#203=CARTESIAN_POINT('',(-13.2155859544996,2.68809400237216,0.0));
#204=CARTESIAN_POINT('',(-13.1115527267972,5.36875540474192,0.0));
#205=CARTESIAN_POINT('',(-13.0473499999989,8.05655,0.0));
#206=CARTESIAN_POINT('',(-13.0017886591999,9.96393823184186,0.0));
#207=CARTESIAN_POINT('',(-12.976285973603,11.8749187422987,0.0));
#208=CARTESIAN_POINT('',(-12.7911600000035,13.7693699999994,0.0));
#209=CARTESIAN_POINT('',(-12.5553027687954,16.1829698835125,0.0));
#210=CARTESIAN_POINT('',(-12.06034999998,18.56974,0.0));
#211=CARTESIAN_POINT('',(-11.6924900000322,20.9717100000018,0.0));
#212=CARTESIAN_POINT('',(-11.5193320937708,22.1023577906746,0.0));
#213=CARTESIAN_POINT('',(-11.3743346874571,23.23637348593,0.0));
#214=CARTESIAN_POINT('',(-11.3743346874814,24.3864013280124,0.0));
#215=CARTESIAN_POINT('',(0.0,0.0,0.0));
#216=DIRECTION('',(-0.0,-1.0,-0.0));
#217=SURFACE_STYLE_FILL_AREA(#339);
#218=ORIENTED_EDGE('',*,*,#337,.F.);
#219=ORIENTED_EDGE('',*,*,#340,.F.);
#220=CARTESIAN_POINT('',(0.0,24.4887077534289,0.0));
#221=DIRECTION('',(0.0,-1.0,0.0));
#222=DIRECTION('',(0.0,0.0,-1.0));
#223=SURFACE_STYLE_FILL_AREA(#341);
#224=ORIENTED_EDGE('',*,*,#342,.T.);
#225=CARTESIAN_POINT('',(2.03287907341032E-015,30.31499976837,0.0));
#226=DIRECTION('',(0.0,1.0,0.0));
#227=DIRECTION('',(-1.0,0.0,0.0));
#228=SURFACE_STYLE_FILL_AREA(#343);
#229=ORIENTED_EDGE('',*,*,#344,.T.);
#230=ORIENTED_EDGE('',*,*,#338,.F.);
#231=CARTESIAN_POINT('',(13.2155859545,-1.81949895219499E-014,0.0));
#232=DIRECTION('',(0.0,-1.0,0.0));
#233=DIRECTION('',(0.0,0.0,-1.0));
#234=SURFACE_STYLE_FILL_AREA(#345);
#235=ORIENTED_EDGE('',*,*,#346,.T.);
#236=ORIENTED_EDGE('',*,*,#347,.T.);
#237=CARTESIAN_POINT('',(3.46944695195362E-015,30.1149997683699,0.0));
#238=CARTESIAN_POINT('',(-3.34852821766752,30.1046359606171,0.0));
#239=CARTESIAN_POINT('',(-6.69704723953866,30.0942736577303,0.0));
#240=CARTESIAN_POINT('',(-10.0502700353832,30.1149997686592,0.0));
#241=CARTESIAN_POINT('',(-11.6708917193685,30.1250167543596,0.0));
#242=CARTESIAN_POINT('',(-13.2926121180052,30.1422954188616,0.0));
#243=CARTESIAN_POINT('',(-14.9049724790661,30.2745271777851,0.0));
#244=CARTESIAN_POINT('',(-17.0307756532751,30.448867045993,0.0));
#245=CARTESIAN_POINT('',(-19.1403083810603,30.8230285654332,0.0));
#246=CARTESIAN_POINT('',(-21.2127821555834,31.380870757148,0.0));
#247=CARTESIAN_POINT('',(-23.8588022518596,32.0930928696656,0.0));
#248=CARTESIAN_POINT('',(-26.4444133910858,33.1047286694449,0.0));
#249=CARTESIAN_POINT('',(-28.7425217693499,34.5677969024131,0.0));
#250=CARTESIAN_POINT('',(-29.3959034879252,34.9837659861565,0.0));
#251=CARTESIAN_POINT('',(-30.0260452684887,35.4362260647297,0.0));
#252=CARTESIAN_POINT('',(-30.6514554233485,35.8944439036753,0.0));
#253=CARTESIAN_POINT('',(0.0,0.0,0.0));
#254=DIRECTION('',(-0.0,-1.0,-0.0));
#255=SURFACE_STYLE_FILL_AREA(#348);
#256=ORIENTED_EDGE('',*,*,#349,.T.);
#257=ORIENTED_EDGE('',*,*,#350,.F.);
#258=CARTESIAN_POINT('',(0.0,33.659572643,0.0));
#259=DIRECTION('',(-0.0,-1.0,0.0));
#260=DIRECTION('',(0.0,0.0,1.0));
#261=SURFACE_STYLE_FILL_AREA(#351);
#262=ORIENTED_EDGE('',*,*,#344,.F.);
#263=ORIENTED_EDGE('',*,*,#352,.F.);
#264=CARTESIAN_POINT('',(-30.59,31.659572643,0.0));
#265=CARTESIAN_POINT('',(-29.3397719113515,28.1103873652241,0.0));
#266=CARTESIAN_POINT('',(-28.0895423395766,24.5612005719385,0.0));
#267=CARTESIAN_POINT('',(-26.6197209305319,21.1124253949269,0.0));
#268=CARTESIAN_POINT('',(-25.4849842826656,18.4498899606727,0.0));
#269=CARTESIAN_POINT('',(-24.219366450244,15.847201884337,0.0));
#270=CARTESIAN_POINT('',(-22.9190490280345,13.238237322029,0.0));
#271=CARTESIAN_POINT('',(-21.4094157042228,10.2093000974462,0.0));
#272=CARTESIAN_POINT('',(-19.8530122559496,7.17190306017111,0.0));
#273=CARTESIAN_POINT('',(-17.7223118575648,4.57660742744934,0.0));
#274=CARTESIAN_POINT('',(-16.818890178175,3.47619634159036,0.0));
#275=CARTESIAN_POINT('',(-15.8122226136288,2.45526530665818,0.0));
#276=CARTESIAN_POINT('',(-14.8081971105474,1.43803202495242,0.0));
#277=CARTESIAN_POINT('',(-14.3343421049723,0.957943540253012,0.0));
#278=CARTESIAN_POINT('',(-13.8610755965599,0.478678699254238,0.0));
#279=CARTESIAN_POINT('',(-13.3877211654797,0.0,0.0));
#280=CARTESIAN_POINT('',(0.0,0.0,0.0));
#281=DIRECTION('',(-0.0,-1.0,-0.0));
#282=SURFACE_STYLE_FILL_AREA(#353);
#283=VERTEX_POINT('',#354);
#284=ORIENTED_EDGE('',*,*,#340,.T.);
#285=CARTESIAN_POINT('',(-11.036947737538,24.7135615382256,0.0));
#286=CARTESIAN_POINT('',(-10.7320536234877,24.4883417040246,0.0));
#287=CARTESIAN_POINT('',(-10.4271595093949,24.2631218698313,0.0));
#288=CARTESIAN_POINT('',(-10.1236115120156,24.0361892770014,0.0));
#289=CARTESIAN_POINT('',(-9.88156361022111,23.855234177915,0.0));
#290=CARTESIAN_POINT('',(-9.64037162338629,23.673190038239,0.0));
#291=CARTESIAN_POINT('',(-9.39844396798464,23.4918698999946,0.0));
#292=CARTESIAN_POINT('',(-8.45660540693804,22.7859799602549,0.0));
#293=CARTESIAN_POINT('',(-7.50361712227603,22.0910629181285,0.0));
#294=CARTESIAN_POINT('',(-6.49944068968241,21.4778610657377,0.0));
#295=CARTESIAN_POINT('',(-5.80323946436897,21.0527247379548,0.0));
#296=CARTESIAN_POINT('',(-5.08243349034511,20.6668666765386,0.0));
#297=CARTESIAN_POINT('',(-4.34355679018575,20.3196018726775,0.0));
#298=CARTESIAN_POINT('',(-3.65815492439956,19.997469716613,0.0));
#299=CARTESIAN_POINT('',(-2.95720335106413,19.7085467334314,0.0));
#300=CARTESIAN_POINT('',(-2.22994512983746,19.4910647548686,0.0));
#301=CARTESIAN_POINT('',(-1.75190343738349,19.3481094054811,0.0));
#302=CARTESIAN_POINT('',(-1.26249542741604,19.2360215822541,0.0));
#303=CARTESIAN_POINT('',(-0.767325856844773,19.1951591216057,0.0));
#304=CARTESIAN_POINT('',(-0.512567284731305,19.1741358949243,0.0));
#305=CARTESIAN_POINT('',(-0.256283642365574,19.1719658382683,0.0));
#306=CARTESIAN_POINT('',(0.0,19.1697957816124,0.0));
#307=CARTESIAN_POINT('',(0.0,0.0,0.0));
#308=DIRECTION('',(-0.0,-1.0,-0.0));
#309=SURFACE_STYLE_FILL_AREA(#355);
#310=ORIENTED_EDGE('',*,*,#335,.T.);
#311=ORIENTED_EDGE('',*,*,#352,.T.);
#312=CARTESIAN_POINT('',(30.59,31.659572643,0.0));
#313=DIRECTION('',(0.0,-1.0,0.0));
#314=DIRECTION('',(0.0,0.0,-1.0));
#315=SURFACE_STYLE_FILL_AREA(#356);
#316=ORIENTED_EDGE('',*,*,#350,.T.);
#317=ORIENTED_EDGE('',*,*,#334,.F.);
#318=CARTESIAN_POINT('',(33.59,33.659572643,0.0));
#319=DIRECTION('',(0.0,1.0,0.0));
#320=DIRECTION('',(0.0,0.0,1.0));
#321=SURFACE_STYLE_FILL_AREA(#357);
#322=ORIENTED_EDGE('',*,*,#346,.F.);
#323=ORIENTED_EDGE('',*,*,#349,.F.);
#324=CARTESIAN_POINT('',(0.0,35.4788925852027,0.0));
#325=DIRECTION('',(0.0,1.0,0.0));
#326=DIRECTION('',(0.0,0.0,1.0));
#327=SURFACE_STYLE_FILL_AREA(#358);
#328=ORIENTED_EDGE('',*,*,#347,.F.);
#329=ORIENTED_EDGE('',*,*,#342,.F.);
#330=CARTESIAN_POINT('',(2.03287907341032E-015,30.31499976837,0.0));
#331=DIRECTION('',(0.0,-1.0,0.0));
#332=DIRECTION('',(0.0,0.0,-1.0));
#333=FILL_AREA_STYLE('',(#359));
#334=EDGE_CURVE('',#360,#360,#361,.T.);
#335=EDGE_CURVE('',#362,#362,#363,.T.);
#336=FILL_AREA_STYLE('',(#364));
#337=EDGE_CURVE('',#365,#365,#366,.T.);
#338=EDGE_CURVE('',#367,#367,#368,.T.);
#339=FILL_AREA_STYLE('',(#369));
#340=EDGE_CURVE('',#370,#370,#371,.T.);
#341=FILL_AREA_STYLE('',(#372));
#342=EDGE_CURVE('',#373,#373,#374,.T.);
#343=FILL_AREA_STYLE('',(#375));
#344=EDGE_CURVE('',#376,#376,#377,.T.);
#345=FILL_AREA_STYLE('',(#378));
#346=EDGE_CURVE('',#379,#379,#380,.T.);
#347=EDGE_CURVE('',#381,#381,#382,.F.);
#348=FILL_AREA_STYLE('',(#383));
#349=EDGE_CURVE('',#384,#384,#385,.T.);
#350=EDGE_CURVE('',#386,#386,#387,.T.);
#351=FILL_AREA_STYLE('',(#388));
#352=EDGE_CURVE('',#389,#389,#390,.T.);
#353=FILL_AREA_STYLE('',(#391));
#354=CARTESIAN_POINT('',(0.0,19.1697957816124,0.0));
#355=FILL_AREA_STYLE('',(#392));
#356=FILL_AREA_STYLE('',(#393));
#357=FILL_AREA_STYLE('',(#394));
#358=FILL_AREA_STYLE('',(#395));
#359=FILL_AREA_STYLE_COLOUR('',#396);
#360=VERTEX_POINT('',#397);
#361=CIRCLE('',#398,33.59);
#362=VERTEX_POINT('',#399);
#363=CIRCLE('',#400,33.59);
#364=FILL_AREA_STYLE_COLOUR('',#401);
#365=VERTEX_POINT('',#402);
#366=CIRCLE('',#403,11.3743346874814);
#367=VERTEX_POINT('',#404);
#368=CIRCLE('',#405,13.2155859545);
#369=FILL_AREA_STYLE_COLOUR('',#406);
#370=VERTEX_POINT('',#407);
#371=CIRCLE('',#408,11.0369477375645);
#372=FILL_AREA_STYLE_COLOUR('',#409);
#373=VERTEX_POINT('',#410);
#374=CIRCLE('',#411,0.3);
#375=FILL_AREA_STYLE_COLOUR('',#412);
#376=VERTEX_POINT('',#413);
#377=B_SPLINE_CURVE_WITH_KNOTS('',3,(#414,#415,#416,#417,#418,#419,#420,#421,#422,#423,#424,#425,#426,#427,#428,#429,#430,#431,#432,#433,#434,#435,#436,#437,#438,#439,#440,#441,#442,#443,#444,#445,#446,#447,#448),.UNSPECIFIED.,.T.,.F.,(2,1,1,1,1,1,1,1,1,1,1,1,1,1,1,1,1,1,1,1,1,1,1,1,1,1,1,1,1,1,1,1,1,1,1,1,2),(-0.0625,-0.03125,0.0,0.03125,0.0625,0.09375,0.125,0.15625,0.1875,0.21875,0.25,0.28125,0.3125,0.34375,0.375,0.40625,0.4375,0.46875,0.5,0.53125,0.5625,0.59375,0.625,0.65625,0.6875,0.71875,0.75,0.78125,0.8125,0.84375,0.875,0.90625,0.9375,0.96875,1.0,1.03125,1.0625),.UNSPECIFIED.);
#378=FILL_AREA_STYLE_COLOUR('',#449);
#379=VERTEX_POINT('',#450);
#380=(B_SPLINE_CURVE(3,(#452,#453,#454,#455,#456,#457,#458),.UNSPECIFIED.,.T.,.F.)B_SPLINE_CURVE_WITH_KNOTS((4,3,4),(0.0,0.5,1.0),.UNSPECIFIED.)RATIONAL_B_SPLINE_CURVE((1.0,0.333333333333333,0.333333333333333,1.0,0.333333333333333,0.333333333333333,1.0))BOUNDED_CURVE()REPRESENTATION_ITEM('')GEOMETRIC_REPRESENTATION_ITEM()CURVE());
#381=VERTEX_POINT('',#465);
#382=CIRCLE('',#466,0.3);
#383=FILL_AREA_STYLE_COLOUR('',#467);
#384=VERTEX_POINT('',#468);
#385=CIRCLE('',#469,31.4270175600048);
#386=VERTEX_POINT('',#470);
#387=CIRCLE('',#471,31.59);
#388=FILL_AREA_STYLE_COLOUR('',#472);
#389=VERTEX_POINT('',#473);
#390=CIRCLE('',#474,30.59);
#391=FILL_AREA_STYLE_COLOUR('',#475);
#392=FILL_AREA_STYLE_COLOUR('',#476);
#393=FILL_AREA_STYLE_COLOUR('',#477);
#394=FILL_AREA_STYLE_COLOUR('',#478);
#395=FILL_AREA_STYLE_COLOUR('',#479);
#396=COLOUR_RGB('',0.752941191196442,0.752941191196442,0.752941191196442);
#397=CARTESIAN_POINT('',(0.0,33.659572643,-33.59));
#398=AXIS2_PLACEMENT_3D('',#480,#481,#482);
#399=CARTESIAN_POINT('',(0.0,31.659572643,-33.59));
#400=AXIS2_PLACEMENT_3D('',#483,#484,#485);
#401=COLOUR_RGB('',0.752941191196442,0.752941191196442,0.752941191196442);
#402=CARTESIAN_POINT('',(0.0,24.3864013280124,11.3743346874814));
#403=AXIS2_PLACEMENT_3D('',#486,#487,#488);
#404=CARTESIAN_POINT('',(0.0,-3.6387565E-014,-13.2155859545));
#405=AXIS2_PLACEMENT_3D('',#489,#490,#491);
#406=COLOUR_RGB('',0.752941191196442,0.752941191196442,0.752941191196442);
#407=CARTESIAN_POINT('',(0.0,24.7135615382256,-11.0369477375645));
#408=AXIS2_PLACEMENT_3D('',#492,#493,#494);
#409=COLOUR_RGB('',0.752941191196442,0.752941191196442,0.752941191196442);
#410=CARTESIAN_POINT('',(-0.299999999999998,30.31499976837,0.0));
#411=AXIS2_PLACEMENT_3D('',#495,#496,#497);
#412=COLOUR_RGB('',0.752941191196442,0.752941191196442,0.752941191196442);
#413=CARTESIAN_POINT('',(13.3868660909081,-1.81949895219498E-014,-7.7715611723761E-016));
#414=CARTESIAN_POINT('',(13.2142774244869,-1.81949895219499E-014,-2.62848320571626));
#415=CARTESIAN_POINT('',(13.4731604241186,-1.81949895219498E-014,-2.16840434497101E-016));
#416=CARTESIAN_POINT('',(13.2142774244869,-1.81949895219499E-014,2.62848320571626));
#417=CARTESIAN_POINT('',(12.4475771540843,-1.81949895219499E-014,5.15595527590721));
#418=CARTESIAN_POINT('',(11.2025234743319,-1.81949895219499E-014,7.48528687633807));
#419=CARTESIAN_POINT('',(9.52696309990852,-1.81949895219499E-014,9.52696309990851));
#420=CARTESIAN_POINT('',(7.48528687633807,-1.81949895219499E-014,11.2025234743319));
#421=CARTESIAN_POINT('',(5.15595527590721,-1.81949895219499E-014,12.4475771540843));
#422=CARTESIAN_POINT('',(2.62848320571627,-1.81949895219499E-014,13.2142774244869));
#423=CARTESIAN_POINT('',(6.88508084197698E-015,-1.81949895219499E-014,13.4731604241186));
#424=CARTESIAN_POINT('',(-2.62848320571627,-1.81949895219499E-014,13.2142774244869));
#425=CARTESIAN_POINT('',(-5.15595527590722,-1.81949895219499E-014,12.4475771540843));
#426=CARTESIAN_POINT('',(-7.48528687633808,-1.81949895219499E-014,11.2025234743319));
#427=CARTESIAN_POINT('',(-9.52696309990852,-1.81949895219499E-014,9.52696309990853));
#428=CARTESIAN_POINT('',(-11.2025234743319,-1.81949895219499E-014,7.48528687633805));
#429=CARTESIAN_POINT('',(-12.4475771540843,-1.81949895219499E-014,5.15595527590723));
#430=CARTESIAN_POINT('',(-13.2142774244869,-1.81949895219499E-014,2.62848320571626));
#431=CARTESIAN_POINT('',(-13.4731604241186,-1.81949895219499E-014,2.09736803983157E-015));
#432=CARTESIAN_POINT('',(-13.2142774244869,-1.81949895219498E-014,-2.62848320571625));
#433=CARTESIAN_POINT('',(-12.4475771540843,-1.81949895219499E-014,-5.15595527590723));
#434=CARTESIAN_POINT('',(-11.2025234743319,-1.81949895219499E-014,-7.48528687633804));
#435=CARTESIAN_POINT('',(-9.52696309990853,-1.81949895219498E-014,-9.52696309990853));
#436=CARTESIAN_POINT('',(-7.48528687633807,-1.81949895219499E-014,-11.2025234743319));
#437=CARTESIAN_POINT('',(-5.15595527590721,-1.81949895219498E-014,-12.4475771540843));
#438=CARTESIAN_POINT('',(-2.62848320571627,-1.81949895219499E-014,-13.2142774244869));
#439=CARTESIAN_POINT('',(-9.99260649743659E-015,-1.81949895219498E-014,-13.4731604241186));
#440=CARTESIAN_POINT('',(2.62848320571627,-1.81949895219499E-014,-13.2142774244869));
#441=CARTESIAN_POINT('',(5.15595527590719,-1.81949895219499E-014,-12.4475771540843));
#442=CARTESIAN_POINT('',(7.48528687633808,-1.81949895219499E-014,-11.2025234743319));
#443=CARTESIAN_POINT('',(9.52696309990851,-1.81949895219499E-014,-9.5269630999085));
#444=CARTESIAN_POINT('',(11.2025234743319,-1.81949895219498E-014,-7.48528687633807));
#445=CARTESIAN_POINT('',(12.4475771540843,-1.81949895219499E-014,-5.15595527590721));
#446=CARTESIAN_POINT('',(13.2142774244869,-1.81949895219499E-014,-2.62848320571626));
#447=CARTESIAN_POINT('',(13.4731604241186,-1.81949895219498E-014,-2.16840434497101E-016));
#448=CARTESIAN_POINT('',(13.2142774244869,-1.81949895219499E-014,2.62848320571626));
#449=COLOUR_RGB('',0.752941191196442,0.752941191196442,0.752941191196442);
#450=CARTESIAN_POINT('',(5.63058101601173E-015,35.8944439036753,-30.6514554233485));
#452=CARTESIAN_POINT('',(5.63058101601173E-015,35.8944439036753,-30.6514554233485));
#453=CARTESIAN_POINT('',(-61.302910846697,35.8944439036753,-30.6514554233485));
#454=CARTESIAN_POINT('',(-61.302910846697,35.8944439036753,30.6514554233485));
#455=CARTESIAN_POINT('',(-1.87686033867058E-015,35.8944439036753,30.6514554233485));
#456=CARTESIAN_POINT('',(61.302910846697,35.8944439036753,30.6514554233485));
#457=CARTESIAN_POINT('',(61.302910846697,35.8944439036753,-30.6514554233485));
#458=CARTESIAN_POINT('',(5.63058101601173E-015,35.8944439036753,-30.6514554233485));
#465=CARTESIAN_POINT('',(-7.34788079488412E-017,30.1140720905632,0.3));
#466=AXIS2_PLACEMENT_3D('',#498,#499,#500);
#467=COLOUR_RGB('',0.752941191196442,0.752941191196442,0.752941191196442);
#468=CARTESIAN_POINT('',(0.0,35.5224704565765,31.4270175600048));
#469=AXIS2_PLACEMENT_3D('',#501,#502,#503);
#470=CARTESIAN_POINT('',(0.0,33.659572643,-31.59));
#471=AXIS2_PLACEMENT_3D('',#504,#505,#506);
#472=COLOUR_RGB('',0.752941191196442,0.752941191196442,0.752941191196442);
#473=CARTESIAN_POINT('',(0.0,31.659572643,30.59));
#474=AXIS2_PLACEMENT_3D('',#507,#508,#509);
#475=COLOUR_RGB('',0.752941191196442,0.752941191196442,0.752941191196442);
#476=COLOUR_RGB('',0.752941191196442,0.752941191196442,0.752941191196442);
#477=COLOUR_RGB('',0.752941191196442,0.752941191196442,0.752941191196442);
#478=COLOUR_RGB('',0.752941191196442,0.752941191196442,0.752941191196442);
#479=COLOUR_RGB('',0.752941191196442,0.752941191196442,0.752941191196442);
#480=CARTESIAN_POINT('',(0.0,33.659572643,0.0));
#481=DIRECTION('',(0.0,-1.0,0.0));
#482=DIRECTION('',(0.0,0.0,-1.0));
#483=CARTESIAN_POINT('',(0.0,31.659572643,0.0));
#484=DIRECTION('',(0.0,-1.0,0.0));
#485=DIRECTION('',(0.0,0.0,-1.0));
#486=CARTESIAN_POINT('',(0.0,24.3864013280124,0.0));
#487=DIRECTION('',(0.0,1.0,0.0));
#488=DIRECTION('',(0.0,0.0,1.0));
#489=CARTESIAN_POINT('',(0.0,-3.6387565E-014,0.0));
#490=DIRECTION('',(0.0,-1.0,0.0));
#491=DIRECTION('',(0.0,0.0,-1.0));
#492=CARTESIAN_POINT('',(0.0,24.7135615382256,0.0));
#493=DIRECTION('',(0.0,-1.0,0.0));
#494=DIRECTION('',(0.0,0.0,-1.0));
#495=CARTESIAN_POINT('',(2.03287907341032E-015,30.31499976837,0.0));
#496=DIRECTION('',(0.0,1.0,0.0));
#497=DIRECTION('',(-1.0,0.0,0.0));
#498=CARTESIAN_POINT('',(0.0,30.1140720905632,0.0));
#499=DIRECTION('',(0.0,1.0,0.0));
#500=DIRECTION('',(0.0,0.0,1.0));
#501=CARTESIAN_POINT('',(0.0,35.5224704565765,0.0));
#502=DIRECTION('',(0.0,-1.0,0.0));
#503=DIRECTION('',(0.0,0.0,1.0));
#504=CARTESIAN_POINT('',(0.0,33.659572643,0.0));
#505=DIRECTION('',(0.0,-1.0,0.0));
#506=DIRECTION('',(0.0,0.0,-1.0));
#507=CARTESIAN_POINT('',(0.0,31.659572643,0.0));
#508=DIRECTION('',(0.0,1.0,0.0));
#509=DIRECTION('',(0.0,0.0,1.0));
ENDSEC;
END-ISO-10303-21;
