ISO-10303-21;
HEADER;
FILE_DESCRIPTION(('STEP AP214'),'1');
FILE_NAME('LLC79x7 - commercial version.stp','2017-11-07T10:19:47',(' '),(' '),'Spatial InterOp 3D',' ',' ');
FILE_SCHEMA(('AUTOMOTIVE_DESIGN { 1 0 10303 214 1 1 1 1 }'));
ENDSEC;
DATA;
#1=MECHANICAL_DESIGN_GEOMETRIC_PRESENTATION_REPRESENTATION(' ',(#10,#11,#12,#13,#14,#15,#16,#17),#6);
#2=PRODUCT_DEFINITION_CONTEXT('',#18,'design');
#3=APPLICATION_PROTOCOL_DEFINITION('INTERNATIONAL STANDARD','automotive_design',1994,#18);
#4=PRODUCT_CATEGORY_RELATIONSHIP('NONE','NONE',#19,#20);
#5=SHAPE_DEFINITION_REPRESENTATION(#21,#22);
#6= (GEOMETRIC_REPRESENTATION_CONTEXT(3)GLOBAL_UNCERTAINTY_ASSIGNED_CONTEXT((#25))GLOBAL_UNIT_ASSIGNED_CONTEXT((#27,#28,#29))REPRESENTATION_CONTEXT('NONE','WORKSPACE'));
#10=STYLED_ITEM('',(#31),#32);
#11=STYLED_ITEM('',(#33),#34);
#12=STYLED_ITEM('',(#35),#36);
#13=STYLED_ITEM('',(#37),#38);
#14=STYLED_ITEM('',(#39),#40);
#15=STYLED_ITEM('',(#41),#42);
#16=STYLED_ITEM('',(#43),#44);
#17=STYLED_ITEM('',(#45),#46);
#18=APPLICATION_CONTEXT(' ');
#19=PRODUCT_CATEGORY('part','NONE');
#20=PRODUCT_RELATED_PRODUCT_CATEGORY('detail',' ',(#47));
#21=PRODUCT_DEFINITION_SHAPE('NONE','NONE',#48);
#22=ADVANCED_BREP_SHAPE_REPRESENTATION('LLC79x7',(#49,#50),#6);
#25=UNCERTAINTY_MEASURE_WITH_UNIT(LENGTH_MEASURE(0.001),#27,'','');
#27= (CONVERSION_BASED_UNIT('MILLIMETRE',#53)LENGTH_UNIT()NAMED_UNIT(#56));
#28= (NAMED_UNIT(#58)PLANE_ANGLE_UNIT()SI_UNIT($,.RADIAN.));
#29= (NAMED_UNIT(#58)SOLID_ANGLE_UNIT()SI_UNIT($,.STERADIAN.));
#31=PRESENTATION_STYLE_ASSIGNMENT((#64));
#32=ADVANCED_FACE('',(#65,#66),#67,.F.);
#33=PRESENTATION_STYLE_ASSIGNMENT((#68));
#34=ADVANCED_FACE('',(#69,#70),#71,.T.);
#35=PRESENTATION_STYLE_ASSIGNMENT((#72));
#36=ADVANCED_FACE('',(#73,#74),#75,.F.);
#37=PRESENTATION_STYLE_ASSIGNMENT((#76));
#38=ADVANCED_FACE('',(#77,#78),#79,.T.);
#39=PRESENTATION_STYLE_ASSIGNMENT((#80));
#40=ADVANCED_FACE('',(#81,#82),#83,.F.);
#41=PRESENTATION_STYLE_ASSIGNMENT((#84));
#42=ADVANCED_FACE('',(#85,#86),#87,.F.);
#43=PRESENTATION_STYLE_ASSIGNMENT((#88));
#44=ADVANCED_FACE('',(#89,#90),#91,.F.);
#45=PRESENTATION_STYLE_ASSIGNMENT((#92));
#46=ADVANCED_FACE('',(#93,#94),#95,.F.);
#47=PRODUCT('LLC79x7','LLC79x7','PART-LLC79x7-DESC',(#96));
#48=PRODUCT_DEFINITION('','NONE',#97,#2);
#49=MANIFOLD_SOLID_BREP('LLC79x7',#98);
#50=AXIS2_PLACEMENT_3D('',#99,#100,#101);
#53=LENGTH_MEASURE_WITH_UNIT(LENGTH_MEASURE(1.0),#102);
#56=DIMENSIONAL_EXPONENTS(1.0,0.0,0.0,0.0,0.0,0.0,0.0);
#58=DIMENSIONAL_EXPONENTS(0.0,0.0,0.0,0.0,0.0,0.0,0.0);
#64=SURFACE_STYLE_USAGE(.BOTH.,#103);
#65=FACE_OUTER_BOUND('',#104,.T.);
#66=FACE_BOUND('',#105,.T.);
#67=SURFACE_OF_REVOLUTION('',#106,#107);
#68=SURFACE_STYLE_USAGE(.BOTH.,#108);
#69=FACE_OUTER_BOUND('',#109,.T.);
#70=FACE_BOUND('',#110,.T.);
#71=CONICAL_SURFACE('',#111,21.5700136037689,0.0872664625997138);
#72=SURFACE_STYLE_USAGE(.BOTH.,#112);
#73=FACE_OUTER_BOUND('',#113,.T.);
#74=FACE_BOUND('',#114,.T.);
#75=PLANE('',#115);
#76=SURFACE_STYLE_USAGE(.BOTH.,#116);
#77=FACE_OUTER_BOUND('',#117,.T.);
#78=FACE_OUTER_BOUND('',#118,.T.);
#79=CYLINDRICAL_SURFACE('',#119,23.1);
#80=SURFACE_STYLE_USAGE(.BOTH.,#120);
#81=FACE_BOUND('',#121,.T.);
#82=FACE_OUTER_BOUND('',#122,.T.);
#83=PLANE('',#123);
#84=SURFACE_STYLE_USAGE(.BOTH.,#124);
#85=FACE_OUTER_BOUND('',#125,.T.);
#86=FACE_OUTER_BOUND('',#126,.T.);
#87=SURFACE_OF_REVOLUTION('',#127,#128);
#88=SURFACE_STYLE_USAGE(.BOTH.,#129);
#89=FACE_BOUND('',#130,.T.);
#90=FACE_OUTER_BOUND('',#131,.T.);
#91=PLANE('',#132);
#92=SURFACE_STYLE_USAGE(.BOTH.,#133);
#93=FACE_BOUND('',#134,.T.);
#94=FACE_OUTER_BOUND('',#135,.T.);
#95=SURFACE_OF_REVOLUTION('',#136,#137);
#96=PRODUCT_CONTEXT('',#18,'mechanical');
#97=PRODUCT_DEFINITION_FORMATION_WITH_SPECIFIED_SOURCE(' ','NONE',#47,.NOT_KNOWN.);
#98=CLOSED_SHELL('',(#32,#34,#36,#38,#40,#42,#44,#46));
#99=CARTESIAN_POINT('',(0.0,0.0,0.0));
#100=DIRECTION('',(0.0,0.0,1.0));
#101=DIRECTION('',(1.0,0.0,0.0));
#102= (NAMED_UNIT(#56)LENGTH_UNIT()SI_UNIT(.MILLI.,.METRE.));
#103=SURFACE_SIDE_STYLE('',(#139));
#104=EDGE_LOOP('',(#140));
#105=VERTEX_LOOP('',#141);
#106=B_SPLINE_CURVE_WITH_KNOTS('',3,(#142,#143,#144,#145,#146,#147,#148,#149,#150,#151,#152,#153,#154,#155,#156,#157),.UNSPECIFIED.,.F.,.F.,(4,3,3,3,3,4),(0.0,1.0,2.0,3.0,4.0,5.0),.UNSPECIFIED.);
#107=AXIS1_PLACEMENT('',#158,#159);
#108=SURFACE_SIDE_STYLE('',(#160));
#109=EDGE_LOOP('',(#161));
#110=EDGE_LOOP('',(#162));
#111=AXIS2_PLACEMENT_3D('',#163,#164,#165);
#112=SURFACE_SIDE_STYLE('',(#166));
#113=EDGE_LOOP('',(#167));
#114=EDGE_LOOP('',(#168));
#115=AXIS2_PLACEMENT_3D('',#169,#170,#171);
#116=SURFACE_SIDE_STYLE('',(#172));
#117=EDGE_LOOP('',(#173));
#118=EDGE_LOOP('',(#174));
#119=AXIS2_PLACEMENT_3D('',#175,#176,#177);
#120=SURFACE_SIDE_STYLE('',(#178));
#121=EDGE_LOOP('',(#179));
#122=EDGE_LOOP('',(#180));
#123=AXIS2_PLACEMENT_3D('',#181,#182,#183);
#124=SURFACE_SIDE_STYLE('',(#184));
#125=EDGE_LOOP('',(#185));
#126=EDGE_LOOP('',(#186));
#127=B_SPLINE_CURVE_WITH_KNOTS('',3,(#187,#188,#189,#190,#191,#192,#193,#194,#195,#196,#197,#198,#199),.UNSPECIFIED.,.F.,.F.,(4,3,3,3,4),(0.0,1.0,2.0,3.0,4.0),.UNSPECIFIED.);
#128=AXIS1_PLACEMENT('',#200,#201);
#129=SURFACE_SIDE_STYLE('',(#202));
#130=EDGE_LOOP('',(#203));
#131=EDGE_LOOP('',(#204));
#132=AXIS2_PLACEMENT_3D('',#205,#206,#207);
#133=SURFACE_SIDE_STYLE('',(#208));
#134=VERTEX_LOOP('',#209);
#135=EDGE_LOOP('',(#210));
#136=B_SPLINE_CURVE_WITH_KNOTS('',3,(#211,#212,#213,#214,#215,#216,#217,#218,#219,#220,#221,#222,#223,#224,#225,#226,#227,#228,#229,#230,#231,#232),.UNSPECIFIED.,.F.,.F.,(4,3,3,3,3,3,3,4),(0.0,1.0,2.0,3.0,4.0,5.0,6.0,7.0),.UNSPECIFIED.);
#137=AXIS1_PLACEMENT('',#233,#234);
#139=SURFACE_STYLE_FILL_AREA(#235);
#140=ORIENTED_EDGE('',*,*,#236,.F.);
#141=VERTEX_POINT('',#237);
#142=CARTESIAN_POINT('',(-25.7,-1.7347234759768E-015,0.0));
#143=CARTESIAN_POINT('',(-26.25,2.25,0.0));
#144=CARTESIAN_POINT('',(-25.6387365788343,3.42516065899077,0.0));
#145=CARTESIAN_POINT('',(-25.5,5.0,0.0));
#146=CARTESIAN_POINT('',(-25.3612634211657,6.57483934100922,0.0));
#147=CARTESIAN_POINT('',(-25.5509119194111,8.14352879396904,0.0));
#148=CARTESIAN_POINT('',(-25.5,9.5,0.0));
#149=CARTESIAN_POINT('',(-25.4490880805889,10.8564712060309,0.0));
#150=CARTESIAN_POINT('',(-25.3306415017085,12.1734983564699,0.0));
#151=CARTESIAN_POINT('',(-25.5,13.5,0.0));
#152=CARTESIAN_POINT('',(-25.6693584982915,14.8265016435301,0.0));
#153=CARTESIAN_POINT('',(-26.1061207192176,15.4388091704131,0.0));
#154=CARTESIAN_POINT('',(-26.5,16.5,0.0));
#155=CARTESIAN_POINT('',(-26.8938792807823,17.5611908295869,0.0));
#156=CARTESIAN_POINT('',(-28.0,20.0,0.0));
#157=CARTESIAN_POINT('',(-27.4,21.5700136037689,0.0));
#158=CARTESIAN_POINT('',(0.0,0.0,0.0));
#159=DIRECTION('',(-1.0,-0.0,-0.0));
#160=SURFACE_STYLE_FILL_AREA(#238);
#161=ORIENTED_EDGE('',*,*,#239,.F.);
#162=ORIENTED_EDGE('',*,*,#236,.T.);
#163=CARTESIAN_POINT('',(-27.4,0.0,0.0));
#164=DIRECTION('',(1.0,-0.0,0.0));
#165=DIRECTION('',(0.0,0.0,-1.0));
#166=SURFACE_STYLE_FILL_AREA(#240);
#167=ORIENTED_EDGE('',*,*,#241,.F.);
#168=ORIENTED_EDGE('',*,*,#239,.T.);
#169=CARTESIAN_POINT('',(-26.2,22.3875,0.0));
#170=DIRECTION('',(1.0,0.0,0.0));
#171=DIRECTION('',(0.0,0.0,-1.0));
#172=SURFACE_STYLE_FILL_AREA(#242);
#173=ORIENTED_EDGE('',*,*,#243,.F.);
#174=ORIENTED_EDGE('',*,*,#241,.T.);
#175=CARTESIAN_POINT('',(0.0,0.0,0.0));
#176=DIRECTION('',(1.0,0.0,0.0));
#177=DIRECTION('',(0.0,0.0,-1.0));
#178=SURFACE_STYLE_FILL_AREA(#244);
#179=ORIENTED_EDGE('',*,*,#245,.F.);
#180=ORIENTED_EDGE('',*,*,#243,.T.);
#181=CARTESIAN_POINT('',(-24.7,22.3875,0.0));
#182=DIRECTION('',(-1.0,0.0,0.0));
#183=DIRECTION('',(0.0,0.0,1.0));
#184=SURFACE_STYLE_FILL_AREA(#246);
#185=ORIENTED_EDGE('',*,*,#247,.F.);
#186=ORIENTED_EDGE('',*,*,#245,.T.);
#187=CARTESIAN_POINT('',(-24.7,21.675,0.0));
#188=CARTESIAN_POINT('',(-22.5,20.5,0.0));
#189=CARTESIAN_POINT('',(-21.5,20.5,0.0));
#190=CARTESIAN_POINT('',(-19.84317735001,19.743363764415,0.0));
#191=CARTESIAN_POINT('',(-18.1863547000199,18.9867275288301,0.0));
#192=CARTESIAN_POINT('',(-15.4227464604119,17.7658055000093,0.0));
#193=CARTESIAN_POINT('',(-12.961373230206,16.6329027500047,0.0));
#194=CARTESIAN_POINT('',(-10.5,15.5,0.0));
#195=CARTESIAN_POINT('',(-8.5,14.5,0.0));
#196=CARTESIAN_POINT('',(-6.32918419881658,13.0967334796988,0.0));
#197=CARTESIAN_POINT('',(-4.15836839763313,11.6934669593976,0.0));
#198=CARTESIAN_POINT('',(-1.9802113940678,10.6883760397961,0.0));
#199=CARTESIAN_POINT('',(-1.0,9.1,0.0));
#200=CARTESIAN_POINT('',(0.0,0.0,0.0));
#201=DIRECTION('',(-1.0,-0.0,-0.0));
#202=SURFACE_STYLE_FILL_AREA(#248);
#203=ORIENTED_EDGE('',*,*,#249,.F.);
#204=ORIENTED_EDGE('',*,*,#247,.T.);
#205=CARTESIAN_POINT('',(-1.0,8.8,0.0));
#206=DIRECTION('',(-1.0,0.0,0.0));
#207=DIRECTION('',(0.0,0.0,1.0));
#208=SURFACE_STYLE_FILL_AREA(#250);
#209=VERTEX_POINT('',#251);
#210=ORIENTED_EDGE('',*,*,#249,.T.);
#211=CARTESIAN_POINT('',(-1.0,8.5,0.0));
#212=CARTESIAN_POINT('',(-1.25000000522549,8.24999996299606,0.0));
#213=CARTESIAN_POINT('',(-1.66941593262564,8.58920245390112,0.0));
#214=CARTESIAN_POINT('',(-2.25,8.25,0.0));
#215=CARTESIAN_POINT('',(-2.83058406737436,7.91079754609898,0.0));
#216=CARTESIAN_POINT('',(-6.6531121636277,6.43027776585849,0.0));
#217=CARTESIAN_POINT('',(-7.49999999999992,6.25,0.0));
#218=CARTESIAN_POINT('',(-8.34688783637213,6.06972223414164,0.0));
#219=CARTESIAN_POINT('',(-12.0305806275116,5.79411720727387,0.0));
#220=CARTESIAN_POINT('',(-13.25,6.0,0.0));
#221=CARTESIAN_POINT('',(-14.4694193724884,6.20588279272614,0.0));
#222=CARTESIAN_POINT('',(-18.0870611858386,7.59245551779218,0.0));
#223=CARTESIAN_POINT('',(-18.2,7.3,0.0));
#224=CARTESIAN_POINT('',(-18.3129388141614,7.00754448220782,0.0));
#225=CARTESIAN_POINT('',(-17.3626516588647,6.29556445261013,0.0));
#226=CARTESIAN_POINT('',(-17.0,5.5,0.0));
#227=CARTESIAN_POINT('',(-16.6373483411353,4.70443554738979,0.0));
#228=CARTESIAN_POINT('',(-16.1891470642831,4.38422612783338,0.0));
#229=CARTESIAN_POINT('',(-16.0945735321415,3.44211306391668,0.0));
#230=CARTESIAN_POINT('',(-16.0,2.5,0.0));
#231=CARTESIAN_POINT('',(-16.0,4.0,0.0));
#232=CARTESIAN_POINT('',(-15.9,-1.7347234759768E-015,0.0));
#233=CARTESIAN_POINT('',(0.0,0.0,0.0));
#234=DIRECTION('',(-1.0,-0.0,-0.0));
#235=FILL_AREA_STYLE('',(#252));
#236=EDGE_CURVE('',#253,#253,#254,.T.);
#237=CARTESIAN_POINT('',(-25.7,-1.7347234759768E-015,0.0));
#238=FILL_AREA_STYLE('',(#255));
#239=EDGE_CURVE('',#256,#256,#257,.T.);
#240=FILL_AREA_STYLE('',(#258));
#241=EDGE_CURVE('',#259,#259,#260,.T.);
#242=FILL_AREA_STYLE('',(#261));
#243=EDGE_CURVE('',#262,#262,#263,.T.);
#244=FILL_AREA_STYLE('',(#264));
#245=EDGE_CURVE('',#265,#265,#266,.T.);
#246=FILL_AREA_STYLE('',(#267));
#247=EDGE_CURVE('',#268,#268,#269,.T.);
#248=FILL_AREA_STYLE('',(#270));
#249=EDGE_CURVE('',#271,#271,#272,.T.);
#250=FILL_AREA_STYLE('',(#273));
#251=CARTESIAN_POINT('',(-15.9,-1.7347234759768E-015,0.0));
#252=FILL_AREA_STYLE_COLOUR('',#274);
#253=VERTEX_POINT('',#275);
#254=CIRCLE('',#276,21.5700136037689);
#255=FILL_AREA_STYLE_COLOUR('',#277);
#256=VERTEX_POINT('',#278);
#257=CIRCLE('',#279,21.675);
#258=FILL_AREA_STYLE_COLOUR('',#280);
#259=VERTEX_POINT('',#281);
#260=CIRCLE('',#282,23.1);
#261=FILL_AREA_STYLE_COLOUR('',#283);
#262=VERTEX_POINT('',#284);
#263=CIRCLE('',#285,23.1);
#264=FILL_AREA_STYLE_COLOUR('',#286);
#265=VERTEX_POINT('',#287);
#266=CIRCLE('',#288,21.675);
#267=FILL_AREA_STYLE_COLOUR('',#289);
#268=VERTEX_POINT('',#290);
#269=CIRCLE('',#291,9.1);
#270=FILL_AREA_STYLE_COLOUR('',#292);
#271=VERTEX_POINT('',#293);
#272=CIRCLE('',#294,8.5);
#273=FILL_AREA_STYLE_COLOUR('',#295);
#274=COLOUR_RGB('',0.752941191196442,0.752941191196442,0.752941191196442);
#275=CARTESIAN_POINT('',(-27.4,0.0,-21.5700136037689));
#276=AXIS2_PLACEMENT_3D('',#296,#297,#298);
#277=COLOUR_RGB('',0.752941191196442,0.752941191196442,0.752941191196442);
#278=CARTESIAN_POINT('',(-26.2,0.0,-21.675));
#279=AXIS2_PLACEMENT_3D('',#299,#300,#301);
#280=COLOUR_RGB('',0.752941191196442,0.752941191196442,0.752941191196442);
#281=CARTESIAN_POINT('',(-26.2,0.0,-23.1));
#282=AXIS2_PLACEMENT_3D('',#302,#303,#304);
#283=COLOUR_RGB('',0.752941191196442,0.752941191196442,0.752941191196442);
#284=CARTESIAN_POINT('',(-24.7,0.0,-23.1));
#285=AXIS2_PLACEMENT_3D('',#305,#306,#307);
#286=COLOUR_RGB('',0.752941191196442,0.752941191196442,0.752941191196442);
#287=CARTESIAN_POINT('',(-24.7,0.0,-21.675));
#288=AXIS2_PLACEMENT_3D('',#308,#309,#310);
#289=COLOUR_RGB('',0.752941191196442,0.752941191196442,0.752941191196442);
#290=CARTESIAN_POINT('',(-1.0,0.0,-9.1));
#291=AXIS2_PLACEMENT_3D('',#311,#312,#313);
#292=COLOUR_RGB('',0.752941191196442,0.752941191196442,0.752941191196442);
#293=CARTESIAN_POINT('',(-1.0,0.0,-8.5));
#294=AXIS2_PLACEMENT_3D('',#314,#315,#316);
#295=COLOUR_RGB('',0.752941191196442,0.752941191196442,0.752941191196442);
#296=CARTESIAN_POINT('',(-27.4,0.0,0.0));
#297=DIRECTION('',(1.0,0.0,0.0));
#298=DIRECTION('',(0.0,0.0,-1.0));
#299=CARTESIAN_POINT('',(-26.2,0.0,0.0));
#300=DIRECTION('',(1.0,0.0,0.0));
#301=DIRECTION('',(0.0,0.0,-1.0));
#302=CARTESIAN_POINT('',(-26.2,0.0,0.0));
#303=DIRECTION('',(1.0,0.0,0.0));
#304=DIRECTION('',(0.0,0.0,-1.0));
#305=CARTESIAN_POINT('',(-24.7,0.0,0.0));
#306=DIRECTION('',(1.0,0.0,0.0));
#307=DIRECTION('',(0.0,0.0,-1.0));
#308=CARTESIAN_POINT('',(-24.7,0.0,0.0));
#309=DIRECTION('',(1.0,0.0,0.0));
#310=DIRECTION('',(0.0,0.0,-1.0));
#311=CARTESIAN_POINT('',(-1.0,0.0,0.0));
#312=DIRECTION('',(1.0,0.0,0.0));
#313=DIRECTION('',(0.0,0.0,-1.0));
#314=CARTESIAN_POINT('',(-1.0,0.0,0.0));
#315=DIRECTION('',(1.0,0.0,0.0));
#316=DIRECTION('',(0.0,0.0,-1.0));
ENDSEC;
END-ISO-10303-21;
