ISO-10303-21;
HEADER;
FILE_DESCRIPTION(('STEP AP203'),'1');
FILE_NAME('UFO ASYMMETRIC PMMA 45.stp','2020-09-18T08:39:31',(' '),(' '),'Spatial InterOp 3D',' ',' ');
FILE_SCHEMA(('CONFIG_CONTROL_DESIGN'));
ENDSEC;
DATA;
#1=DESIGN_CONTEXT('',#37,'design');
#2=APPLICATION_PROTOCOL_DEFINITION('INTERNATIONAL STANDARD','config_control_design',1994,#37);
#3=PRODUCT_CATEGORY_RELATIONSHIP('NONE','NONE',#38,#39);
#4=DATE_AND_TIME(#40,#41);
#5=DATE_TIME_ROLE('creation_date');
#6=DATE_TIME_ROLE('classification_date');
#7=PERSON_AND_ORGANIZATION_ROLE('creator');
#8=PERSON_AND_ORGANIZATION_ROLE('design_supplier');
#9=PERSON_AND_ORGANIZATION_ROLE('classification_officer');
#10=PERSON_AND_ORGANIZATION_ROLE('design_owner');
#11=APPROVAL_PERSON_ORGANIZATION(#42,#43,#44);
#12=APPROVAL_DATE_TIME(#4,#43);
#13=CC_DESIGN_APPROVAL(#43,(#45,#46,#47));
#14=CC_DESIGN_DATE_AND_TIME_ASSIGNMENT(#4,#5,(#47));
#15=CC_DESIGN_DATE_AND_TIME_ASSIGNMENT(#4,#6,(#45));
#16=CC_DESIGN_PERSON_AND_ORGANIZATION_ASSIGNMENT(#42,#10,(#48));
#17=CC_DESIGN_PERSON_AND_ORGANIZATION_ASSIGNMENT(#42,#7,(#47));
#18=CC_DESIGN_PERSON_AND_ORGANIZATION_ASSIGNMENT(#42,#7,(#46));
#19=CC_DESIGN_PERSON_AND_ORGANIZATION_ASSIGNMENT(#42,#8,(#46));
#20=CC_DESIGN_SECURITY_CLASSIFICATION(#45,(#46));
#21=CC_DESIGN_PERSON_AND_ORGANIZATION_ASSIGNMENT(#42,#9,(#45));
#22=SHAPE_DEFINITION_REPRESENTATION(#49,#50);
#23= (GEOMETRIC_REPRESENTATION_CONTEXT(3)GLOBAL_UNCERTAINTY_ASSIGNED_CONTEXT((#53))GLOBAL_UNIT_ASSIGNED_CONTEXT((#55,#56,#57))REPRESENTATION_CONTEXT('NONE','WORKSPACE'));
#24=PROPERTY_DEFINITION_REPRESENTATION(#59,#60);
#25=GENERAL_PROPERTY_ASSOCIATION('','',#61,#59);
#26=PROPERTY_DEFINITION_REPRESENTATION(#62,#63);
#27=GENERAL_PROPERTY_ASSOCIATION('','',#64,#62);
#28=PROPERTY_DEFINITION_REPRESENTATION(#65,#66);
#29=GENERAL_PROPERTY_ASSOCIATION('','',#67,#65);
#30=PROPERTY_DEFINITION_REPRESENTATION(#68,#69);
#31=GENERAL_PROPERTY_ASSOCIATION('','',#70,#68);
#32=PROPERTY_DEFINITION_REPRESENTATION(#71,#72);
#33=GENERAL_PROPERTY_ASSOCIATION('','',#73,#71);
#37=APPLICATION_CONTEXT('CONFIGURATION CONTROLLED 3D DESIGNS OF MECHANICAL PARTS AND ASSEMBLIES');
#38=PRODUCT_CATEGORY('part','NONE');
#39=PRODUCT_RELATED_PRODUCT_CATEGORY('detail',' ',(#48));
#40=CALENDAR_DATE(2020,18,8);
#41=LOCAL_TIME(10,39,31.0,#74);
#42=PERSON_AND_ORGANIZATION(#75,#76);
#43=APPROVAL(#77,'SOLID MODEL');
#44=APPROVAL_ROLE('APPROVED');
#45=SECURITY_CLASSIFICATION('','',#78);
#46=PRODUCT_DEFINITION_FORMATION_WITH_SPECIFIED_SOURCE('A','NONE',#48,.NOT_KNOWN.);
#47=PRODUCT_DEFINITION('','NONE',#46,#1);
#48=PRODUCT('UFO ASYMMETRIC PMMA 45','X73970','UFO 45 A',(#79));
#49=PRODUCT_DEFINITION_SHAPE('NONE','NONE',#47);
#50=ADVANCED_BREP_SHAPE_REPRESENTATION('1',(#80,#81),#23);
#53=UNCERTAINTY_MEASURE_WITH_UNIT(LENGTH_MEASURE(0.001),#55,'','');
#55= (CONVERSION_BASED_UNIT('MILLIMETRE',#84)LENGTH_UNIT()NAMED_UNIT(#87));
#56= (NAMED_UNIT(#89)PLANE_ANGLE_UNIT()SI_UNIT($,.RADIAN.));
#57= (NAMED_UNIT(#89)SOLID_ANGLE_UNIT()SI_UNIT($,.STERADIAN.));
#59=PROPERTY_DEFINITION('PdmObjectId','',#47);
#60=REPRESENTATION('',(#95),#23);
#61=GENERAL_PROPERTY('','19_357a5e44-f5e9-4d92-8c05-5830676b3463&5_502_0_18','');
#62=PROPERTY_DEFINITION('Manufacturer','',#47);
#63=REPRESENTATION('',(#96),#23);
#64=GENERAL_PROPERTY('','plan commercial sur base de la version 22 dents','');
#65=PROPERTY_DEFINITION('CreationDate','',#47);
#66=REPRESENTATION('',(#97),#23);
#67=GENERAL_PROPERTY('','05/11/2019 07:09:28','');
#68=PROPERTY_DEFINITION('Minor Revision','',#47);
#69=REPRESENTATION('',(#98),#23);
#70=GENERAL_PROPERTY('','4','');
#71=PROPERTY_DEFINITION('Comment','',#47);
#72=REPRESENTATION('',(#99),#23);
#73=GENERAL_PROPERTY('','191017-X73970-3D-UFO 45A-INDB','');
#74=COORDINATED_UNIVERSAL_TIME_OFFSET(1,0,.AHEAD.);
#75=PERSON('','UNSPECIFIED',$,$,$,$);
#76=ORGANIZATION('UNSPECIFIED','UNSPECIFIED','UNSPECIFIED');
#77=APPROVAL_STATUS('approved');
#78=SECURITY_CLASSIFICATION_LEVEL('unclassified');
#79=MECHANICAL_CONTEXT('',#37,'mechanical');
#80=MANIFOLD_SOLID_BREP('1',#100);
#81=AXIS2_PLACEMENT_3D('',#101,#102,#103);
#84=LENGTH_MEASURE_WITH_UNIT(LENGTH_MEASURE(1.0),#104);
#87=DIMENSIONAL_EXPONENTS(1.0,0.0,0.0,0.0,0.0,0.0,0.0);
#89=DIMENSIONAL_EXPONENTS(0.0,0.0,0.0,0.0,0.0,0.0,0.0);
#95=DESCRIPTIVE_REPRESENTATION_ITEM('','19_357a5e44-f5e9-4d92-8c05-5830676b3463&5_502_0_18');
#96=DESCRIPTIVE_REPRESENTATION_ITEM('','plan commercial sur base de la version 22 dents');
#97=DESCRIPTIVE_REPRESENTATION_ITEM('','05/11/2019 07:09:28');
#98=DESCRIPTIVE_REPRESENTATION_ITEM('','4');
#99=DESCRIPTIVE_REPRESENTATION_ITEM('','191017-X73970-3D-UFO 45A-INDB');
#100=CLOSED_SHELL('',(#105,#106,#107,#108,#109,#110,#111,#112,#113,#114,#115,#116,#117,#118,#119));
#101=CARTESIAN_POINT('',(0.0,0.0,0.0));
#102=DIRECTION('',(0.0,0.0,1.0));
#103=DIRECTION('',(1.0,0.0,0.0));
#104= (NAMED_UNIT(#87)LENGTH_UNIT()SI_UNIT(.MILLI.,.METRE.));
#105=ADVANCED_FACE('',(#121),#122,.F.);
#106=ADVANCED_FACE('',(#123),#124,.F.);
#107=ADVANCED_FACE('',(#125,#126),#127,.F.);
#108=ADVANCED_FACE('',(#128,#129),#130,.F.);
#109=ADVANCED_FACE('',(#131),#132,.T.);
#110=ADVANCED_FACE('',(#133),#134,.F.);
#111=ADVANCED_FACE('',(#135,#136),#137,.F.);
#112=ADVANCED_FACE('',(#138,#139),#140,.T.);
#113=ADVANCED_FACE('',(#141),#142,.T.);
#114=ADVANCED_FACE('',(#143),#144,.T.);
#115=ADVANCED_FACE('',(#145,#146),#147,.T.);
#116=ADVANCED_FACE('',(#148),#149,.F.);
#117=ADVANCED_FACE('',(#150),#151,.T.);
#118=ADVANCED_FACE('',(#152),#153,.F.);
#119=ADVANCED_FACE('',(#154),#155,.F.);
#121=FACE_OUTER_BOUND('',#156,.T.);
#122=CYLINDRICAL_SURFACE('',#157,2.00000283954084);
#123=FACE_OUTER_BOUND('',#158,.T.);
#124=PLANE('',#159);
#125=FACE_BOUND('',#160,.T.);
#126=FACE_OUTER_BOUND('',#161,.T.);
#127=CONICAL_SURFACE('',#162,7.18594031616815,0.960667131721765);
#128=FACE_BOUND('',#163,.T.);
#129=FACE_OUTER_BOUND('',#164,.T.);
#130=PLANE('',#165);
#131=FACE_OUTER_BOUND('',#166,.T.);
#132=PLANE('',#167);
#133=FACE_OUTER_BOUND('',#168,.T.);
#134=PLANE('',#169);
#135=FACE_OUTER_BOUND('',#170,.T.);
#136=FACE_BOUND('',#171,.T.);
#137=PLANE('',#172);
#138=FACE_OUTER_BOUND('',#173,.T.);
#139=FACE_BOUND('',#174,.T.);
#140=CONICAL_SURFACE('',#175,22.0499999922828,0.0349065850398857);
#141=FACE_OUTER_BOUND('',#176,.T.);
#142=CONICAL_SURFACE('',#177,23.0499999922829,0.0349065850398857);
#143=FACE_OUTER_BOUND('',#178,.T.);
#144=CONICAL_SURFACE('',#179,23.0499999922829,0.0349065850398857);
#145=FACE_BOUND('',#180,.T.);
#146=FACE_OUTER_BOUND('',#181,.T.);
#147=CONICAL_SURFACE('',#182,21.9029999952076,0.605501660555817);
#148=FACE_OUTER_BOUND('',#183,.T.);
#149=CYLINDRICAL_SURFACE('',#184,2.0);
#150=FACE_OUTER_BOUND('',#185,.T.);
#151=CYLINDRICAL_SURFACE('',#186,22.9);
#152=FACE_OUTER_BOUND('',#187,.T.);
#153=PLANE('',#188);
#154=FACE_OUTER_BOUND('',#189,.T.);
#155=PLANE('',#190);
#156=EDGE_LOOP('',(#191,#192,#193,#194));
#157=AXIS2_PLACEMENT_3D('',#195,#196,#197);
#158=EDGE_LOOP('',(#198));
#159=AXIS2_PLACEMENT_3D('',#199,#200,#201);
#160=EDGE_LOOP('',(#202));
#161=EDGE_LOOP('',(#203));
#162=AXIS2_PLACEMENT_3D('',#204,#205,#206);
#163=EDGE_LOOP('',(#207));
#164=EDGE_LOOP('',(#208));
#165=AXIS2_PLACEMENT_3D('',#209,#210,#211);
#166=EDGE_LOOP('',(#212));
#167=AXIS2_PLACEMENT_3D('',#213,#214,#215);
#168=EDGE_LOOP('',(#216,#217,#218,#219,#220,#221,#222,#223));
#169=AXIS2_PLACEMENT_3D('',#224,#225,#226);
#170=EDGE_LOOP('',(#227,#228,#229,#230,#231,#232,#233,#234));
#171=EDGE_LOOP('',(#235));
#172=AXIS2_PLACEMENT_3D('',#236,#237,#238);
#173=EDGE_LOOP('',(#239,#240,#241,#242));
#174=EDGE_LOOP('',(#243));
#175=AXIS2_PLACEMENT_3D('',#244,#245,#246);
#176=EDGE_LOOP('',(#247,#248,#249,#250));
#177=AXIS2_PLACEMENT_3D('',#251,#252,#253);
#178=EDGE_LOOP('',(#254,#255,#256,#257));
#179=AXIS2_PLACEMENT_3D('',#258,#259,#260);
#180=EDGE_LOOP('',(#261));
#181=EDGE_LOOP('',(#262));
#182=AXIS2_PLACEMENT_3D('',#263,#264,#265);
#183=EDGE_LOOP('',(#266,#267,#268,#269));
#184=AXIS2_PLACEMENT_3D('',#270,#271,#272);
#185=EDGE_LOOP('',(#273,#274,#275,#276));
#186=AXIS2_PLACEMENT_3D('',#277,#278,#279);
#187=EDGE_LOOP('',(#280,#281,#282,#283));
#188=AXIS2_PLACEMENT_3D('',#284,#285,#286);
#189=EDGE_LOOP('',(#287,#288,#289,#290));
#190=AXIS2_PLACEMENT_3D('',#291,#292,#293);
#191=ORIENTED_EDGE('',*,*,#294,.T.);
#192=ORIENTED_EDGE('',*,*,#295,.T.);
#193=ORIENTED_EDGE('',*,*,#296,.F.);
#194=ORIENTED_EDGE('',*,*,#297,.T.);
#195=CARTESIAN_POINT('',(-6.49999716045917,12.2487398122771,24.0366424095206));
#196=DIRECTION('',(0.0,-1.0,0.0));
#197=DIRECTION('',(-1.0,0.0,0.0));
#198=ORIENTED_EDGE('',*,*,#298,.T.);
#199=CARTESIAN_POINT('',(-3.49297015808405,6.91133426236951,0.0));
#200=DIRECTION('',(0.0,1.0,0.0));
#201=DIRECTION('',(0.0,0.0,1.0));
#202=ORIENTED_EDGE('',*,*,#298,.F.);
#203=ORIENTED_EDGE('',*,*,#299,.T.);
#204=CARTESIAN_POINT('',(0.0,6.77151202538834,0.0));
#205=DIRECTION('',(0.0,-1.0,-0.0));
#206=DIRECTION('',(0.0,0.0,-1.0));
#207=ORIENTED_EDGE('',*,*,#299,.F.);
#208=ORIENTED_EDGE('',*,*,#300,.T.);
#209=CARTESIAN_POINT('',(-13.3409249801489,6.77151202538834,0.0));
#210=DIRECTION('',(0.0,1.0,0.0));
#211=DIRECTION('',(0.0,0.0,1.0));
#212=ORIENTED_EDGE('',*,*,#301,.T.);
#213=CARTESIAN_POINT('',(1.98035111692611E-14,18.2687398122771,0.0));
#214=DIRECTION('',(0.0,1.0,0.0));
#215=DIRECTION('',(-1.0,0.0,0.0));
#216=ORIENTED_EDGE('',*,*,#302,.F.);
#217=ORIENTED_EDGE('',*,*,#303,.F.);
#218=ORIENTED_EDGE('',*,*,#304,.T.);
#219=ORIENTED_EDGE('',*,*,#305,.T.);
#220=ORIENTED_EDGE('',*,*,#306,.T.);
#221=ORIENTED_EDGE('',*,*,#307,.F.);
#222=ORIENTED_EDGE('',*,*,#297,.F.);
#223=ORIENTED_EDGE('',*,*,#308,.F.);
#224=CARTESIAN_POINT('',(-22.5499999922828,12.2487398122771,0.0));
#225=DIRECTION('',(0.0,-1.0,0.0));
#226=DIRECTION('',(0.0,0.0,-1.0));
#227=ORIENTED_EDGE('',*,*,#309,.F.);
#228=ORIENTED_EDGE('',*,*,#310,.F.);
#229=ORIENTED_EDGE('',*,*,#295,.F.);
#230=ORIENTED_EDGE('',*,*,#311,.T.);
#231=ORIENTED_EDGE('',*,*,#312,.F.);
#232=ORIENTED_EDGE('',*,*,#313,.F.);
#233=ORIENTED_EDGE('',*,*,#314,.F.);
#234=ORIENTED_EDGE('',*,*,#315,.T.);
#235=ORIENTED_EDGE('',*,*,#316,.F.);
#236=CARTESIAN_POINT('',(-21.9764999947523,10.2487398122771,0.0));
#237=DIRECTION('',(0.0,1.0,0.0));
#238=DIRECTION('',(0.0,0.0,1.0));
#239=ORIENTED_EDGE('',*,*,#305,.F.);
#240=ORIENTED_EDGE('',*,*,#317,.T.);
#241=ORIENTED_EDGE('',*,*,#313,.T.);
#242=ORIENTED_EDGE('',*,*,#318,.F.);
#243=ORIENTED_EDGE('',*,*,#301,.F.);
#244=CARTESIAN_POINT('',(0.0,12.2487398122771,0.0));
#245=DIRECTION('',(-0.0,-1.0,0.0));
#246=DIRECTION('',(0.0,0.0,1.0));
#247=ORIENTED_EDGE('',*,*,#319,.F.);
#248=ORIENTED_EDGE('',*,*,#315,.F.);
#249=ORIENTED_EDGE('',*,*,#320,.F.);
#250=ORIENTED_EDGE('',*,*,#303,.T.);
#251=CARTESIAN_POINT('',(0.0,12.2487398122771,0.0));
#252=DIRECTION('',(0.0,1.0,0.0));
#253=DIRECTION('',(0.0,0.0,-1.0));
#254=ORIENTED_EDGE('',*,*,#294,.F.);
#255=ORIENTED_EDGE('',*,*,#307,.T.);
#256=ORIENTED_EDGE('',*,*,#321,.F.);
#257=ORIENTED_EDGE('',*,*,#311,.F.);
#258=CARTESIAN_POINT('',(0.0,12.2487398122771,0.0));
#259=DIRECTION('',(0.0,1.0,0.0));
#260=DIRECTION('',(0.0,0.0,-1.0));
#261=ORIENTED_EDGE('',*,*,#300,.F.);
#262=ORIENTED_EDGE('',*,*,#316,.T.);
#263=CARTESIAN_POINT('',(0.0,10.2487398123,0.0));
#264=DIRECTION('',(-0.0,1.0,-0.0));
#265=DIRECTION('',(0.0,0.0,1.0));
#266=ORIENTED_EDGE('',*,*,#319,.T.);
#267=ORIENTED_EDGE('',*,*,#302,.T.);
#268=ORIENTED_EDGE('',*,*,#322,.T.);
#269=ORIENTED_EDGE('',*,*,#309,.T.);
#270=CARTESIAN_POINT('',(6.5,12.2487398122771,24.0366387001178));
#271=DIRECTION('',(0.0,-1.0,0.0));
#272=DIRECTION('',(-1.0,0.0,0.0));
#273=ORIENTED_EDGE('',*,*,#310,.T.);
#274=ORIENTED_EDGE('',*,*,#322,.F.);
#275=ORIENTED_EDGE('',*,*,#308,.T.);
#276=ORIENTED_EDGE('',*,*,#296,.T.);
#277=CARTESIAN_POINT('',(0.0,12.2487398122771,0.0));
#278=DIRECTION('',(0.0,-1.0,0.0));
#279=DIRECTION('',(-1.0,0.0,0.0));
#280=ORIENTED_EDGE('',*,*,#314,.T.);
#281=ORIENTED_EDGE('',*,*,#317,.F.);
#282=ORIENTED_EDGE('',*,*,#304,.F.);
#283=ORIENTED_EDGE('',*,*,#320,.T.);
#284=CARTESIAN_POINT('',(1.5,12.2487398122771,1.47258913999888E-15));
#285=DIRECTION('',(0.984807753012208,0.17364817766693,6.03000915816144E-17));
#286=DIRECTION('',(-0.17364817766693,0.984807753012208,0.0));
#287=ORIENTED_EDGE('',*,*,#306,.F.);
#288=ORIENTED_EDGE('',*,*,#318,.T.);
#289=ORIENTED_EDGE('',*,*,#312,.T.);
#290=ORIENTED_EDGE('',*,*,#321,.T.);
#291=CARTESIAN_POINT('',(-1.5,12.2487398122771,1.28889818692553E-15));
#292=DIRECTION('',(-0.984807753012208,0.17364817766693,-6.03000915816144E-17));
#293=DIRECTION('',(-0.17364817766693,-0.984807753012208,0.0));
#294=EDGE_CURVE('',#323,#324,#325,.T.);
#295=EDGE_CURVE('',#324,#326,#327,.F.);
#296=EDGE_CURVE('',#328,#326,#329,.T.);
#297=EDGE_CURVE('',#328,#323,#330,.T.);
#298=EDGE_CURVE('',#331,#331,#332,.T.);
#299=EDGE_CURVE('',#333,#333,#334,.T.);
#300=EDGE_CURVE('',#335,#335,#336,.T.);
#301=EDGE_CURVE('',#337,#337,#338,.T.);
#302=EDGE_CURVE('',#339,#340,#341,.T.);
#303=EDGE_CURVE('',#342,#339,#343,.T.);
#304=EDGE_CURVE('',#342,#344,#345,.F.);
#305=EDGE_CURVE('',#344,#346,#347,.T.);
#306=EDGE_CURVE('',#346,#348,#349,.F.);
#307=EDGE_CURVE('',#323,#348,#350,.T.);
#308=EDGE_CURVE('',#340,#328,#351,.T.);
#309=EDGE_CURVE('',#352,#353,#354,.F.);
#310=EDGE_CURVE('',#326,#352,#355,.T.);
#311=EDGE_CURVE('',#324,#356,#357,.F.);
#312=EDGE_CURVE('',#358,#356,#359,.F.);
#313=EDGE_CURVE('',#360,#358,#361,.T.);
#314=EDGE_CURVE('',#362,#360,#363,.F.);
#315=EDGE_CURVE('',#362,#353,#364,.F.);
#316=EDGE_CURVE('',#365,#365,#366,.F.);
#317=EDGE_CURVE('',#344,#360,#367,.F.);
#318=EDGE_CURVE('',#346,#358,#368,.T.);
#319=EDGE_CURVE('',#353,#339,#369,.T.);
#320=EDGE_CURVE('',#342,#362,#370,.F.);
#321=EDGE_CURVE('',#356,#348,#371,.F.);
#322=EDGE_CURVE('',#340,#352,#372,.T.);
#323=VERTEX_POINT('',#373);
#324=VERTEX_POINT('',#374);
#325=B_SPLINE_CURVE_WITH_KNOTS('',3,(#375,#376,#377,#378),.UNSPECIFIED.,.F.,.F.,(4,4),(1.02387680699684E-05,0.002020528195362),.UNSPECIFIED.);
#326=VERTEX_POINT('',#379);
#327=CIRCLE('',#380,2.00000283954084);
#328=VERTEX_POINT('',#381);
#329=LINE('',#382,#383);
#330=CIRCLE('',#384,2.00000283954084);
#331=VERTEX_POINT('',#385);
#332=CIRCLE('',#386,6.98594031616815);
#333=VERTEX_POINT('',#387);
#334=CIRCLE('',#388,7.18594031616815);
#335=VERTEX_POINT('',#389);
#336=CIRCLE('',#390,19.4959096441296);
#337=VERTEX_POINT('',#391);
#338=CIRCLE('',#392,21.8397769599425);
#339=VERTEX_POINT('',#393);
#340=VERTEX_POINT('',#394);
#341=CIRCLE('',#395,2.0);
#342=VERTEX_POINT('',#396);
#343=CIRCLE('',#397,23.0499999922829);
#344=VERTEX_POINT('',#398);
#345=LINE('',#399,#400);
#346=VERTEX_POINT('',#401);
#347=CIRCLE('',#402,22.0499999922828);
#348=VERTEX_POINT('',#403);
#349=LINE('',#404,#405);
#350=CIRCLE('',#406,23.0499999922829);
#351=CIRCLE('',#407,22.9);
#352=VERTEX_POINT('',#408);
#353=VERTEX_POINT('',#409);
#354=CIRCLE('',#410,2.0);
#355=CIRCLE('',#411,22.9);
#356=VERTEX_POINT('',#412);
#357=CIRCLE('',#413,22.9801584532993);
#358=VERTEX_POINT('',#414);
#359=LINE('',#415,#416);
#360=VERTEX_POINT('',#417);
#361=CIRCLE('',#418,22.1198415312664);
#362=VERTEX_POINT('',#419);
#363=LINE('',#420,#421);
#364=CIRCLE('',#422,22.9801584532993);
#365=VERTEX_POINT('',#423);
#366=CIRCLE('',#424,21.9029999951918);
#367=ELLIPSE('',#425,130.384068887447,22.1925025336139);
#368=ELLIPSE('',#426,130.384068887447,22.1925025336139);
#369=B_SPLINE_CURVE_WITH_KNOTS('',3,(#427,#428,#429,#430),.UNSPECIFIED.,.F.,.F.,(4,4),(1.02711478666239E-05,0.00202056056216654),.UNSPECIFIED.);
#370=ELLIPSE('',#431,139.93910339455,23.8188525111612);
#371=ELLIPSE('',#432,139.93910339455,23.8188525111612);
#372=LINE('',#433,#434);
#373=CARTESIAN_POINT('',(-6.71975684396372,12.2487398122771,22.048749796808));
#374=CARTESIAN_POINT('',(-6.51697945960067,10.2487398122771,22.0367116707981));
#375=CARTESIAN_POINT('',(-6.71975684396383,12.248739812277,22.048749796808));
#376=CARTESIAN_POINT('',(-6.66107842713443,11.581184017103,22.042262952283));
#377=CARTESIAN_POINT('',(-6.59663578172928,10.9142031004751,22.0373880679676));
#378=CARTESIAN_POINT('',(-6.51697945960077,10.2487398122771,22.0367116707981));
#379=CARTESIAN_POINT('',(-5.97790835341366,10.2487398122771,22.1059858798061));
#380=AXIS2_PLACEMENT_3D('',#435,#436,#437);
#381=CARTESIAN_POINT('',(-5.97790835341366,12.2487398122771,22.1059858798061));
#382=CARTESIAN_POINT('',(-5.97790835341366,12.2487398122771,22.1059858798061));
#383=VECTOR('',#438,1.0);
#384=AXIS2_PLACEMENT_3D('',#439,#440,#441);
#385=CARTESIAN_POINT('',(0.0,6.91133426236951,-6.98594031616815));
#386=AXIS2_PLACEMENT_3D('',#442,#443,#444);
#387=CARTESIAN_POINT('',(0.0,6.77151202538834,-7.18594031616815));
#388=AXIS2_PLACEMENT_3D('',#445,#446,#447);
#389=CARTESIAN_POINT('',(0.0,6.77151202538834,-19.4959096441296));
#390=AXIS2_PLACEMENT_3D('',#448,#449,#450);
#391=CARTESIAN_POINT('',(1.98035111692611E-14,18.2687398122771,21.8397769599425));
#392=AXIS2_PLACEMENT_3D('',#451,#452,#453);
#393=CARTESIAN_POINT('',(6.71975965259259,12.2487398122771,22.0487489408272));
#394=CARTESIAN_POINT('',(5.97791164658635,12.2487398122771,22.105984989265));
#395=AXIS2_PLACEMENT_3D('',#454,#455,#456);
#396=CARTESIAN_POINT('',(1.5,12.2487398122771,-23.0011412682988));
#397=AXIS2_PLACEMENT_3D('',#457,#458,#459);
#398=CARTESIAN_POINT('',(1.5,12.2487398122771,-21.9989204203223));
#399=CARTESIAN_POINT('',(1.5,12.2487398122771,1.47258913999888E-15));
#400=VECTOR('',#460,1.0);
#401=CARTESIAN_POINT('',(-1.5,12.248739812277,-21.9989204203223));
#402=AXIS2_PLACEMENT_3D('',#461,#462,#463);
#403=CARTESIAN_POINT('',(-1.5,12.2487398122771,-23.0011412682988));
#404=CARTESIAN_POINT('',(-1.5,12.2487398122771,1.28889818692553E-15));
#405=VECTOR('',#464,1.0);
#406=AXIS2_PLACEMENT_3D('',#465,#466,#467);
#407=AXIS2_PLACEMENT_3D('',#468,#469,#470);
#408=CARTESIAN_POINT('',(5.97791164658635,10.2487398122771,22.105984989265));
#409=CARTESIAN_POINT('',(6.51698239779881,10.2487398122771,22.0367108018762));
#410=AXIS2_PLACEMENT_3D('',#471,#472,#473);
#411=AXIS2_PLACEMENT_3D('',#474,#475,#476);
#412=CARTESIAN_POINT('',(-1.85265396141693,10.2487398122771,-22.9053564879046));
#413=AXIS2_PLACEMENT_3D('',#477,#478,#479);
#414=CARTESIAN_POINT('',(-1.85265396141693,10.2487398122771,-22.0421201944726));
#415=CARTESIAN_POINT('',(-1.85265396141693,10.2487398122771,1.23218948578829E-15));
#416=VECTOR('',#480,1.0);
#417=CARTESIAN_POINT('',(1.85265396141693,10.2487398122771,-22.0421201944726));
#418=AXIS2_PLACEMENT_3D('',#481,#482,#483);
#419=CARTESIAN_POINT('',(1.85265396141693,10.2487398122771,-22.9053564879046));
#420=CARTESIAN_POINT('',(1.85265396141693,10.2487398122771,1.45906666704682E-15));
#421=VECTOR('',#484,1.0);
#422=AXIS2_PLACEMENT_3D('',#485,#486,#487);
#423=CARTESIAN_POINT('',(-5.36468776716721E-15,10.2487398122771,21.9029999951918));
#424=AXIS2_PLACEMENT_3D('',#488,#489,#490);
#425=AXIS2_PLACEMENT_3D('',#491,#492,#493);
#426=AXIS2_PLACEMENT_3D('',#494,#495,#496);
#427=CARTESIAN_POINT('',(6.51698239779868,10.2487398122771,22.0367108018762));
#428=CARTESIAN_POINT('',(6.5966386692172,10.9142031020403,22.0373872035053));
#429=CARTESIAN_POINT('',(6.66108127347759,11.5811840182514,22.0422620920728));
#430=CARTESIAN_POINT('',(6.71975965259252,12.2487398122771,22.0487489408272));
#431=AXIS2_PLACEMENT_3D('',#497,#498,#499);
#432=AXIS2_PLACEMENT_3D('',#500,#501,#502);
#433=CARTESIAN_POINT('',(5.97791164658635,12.2487398122771,22.105984989265));
#434=VECTOR('',#503,1.0);
#435=CARTESIAN_POINT('',(-6.49999716045917,10.2487398122771,24.0366424095206));
#436=DIRECTION('',(0.0,1.0,0.0));
#437=DIRECTION('',(0.0,0.0,1.0));
#438=DIRECTION('',(0.0,-1.0,0.0));
#439=CARTESIAN_POINT('',(-6.49999716045917,12.2487398122771,24.0366424095206));
#440=DIRECTION('',(0.0,1.0,0.0));
#441=DIRECTION('',(-1.0,0.0,0.0));
#442=CARTESIAN_POINT('',(0.0,6.91133426236951,0.0));
#443=DIRECTION('',(0.0,-1.0,0.0));
#444=DIRECTION('',(0.0,0.0,-1.0));
#445=CARTESIAN_POINT('',(0.0,6.77151202538834,0.0));
#446=DIRECTION('',(0.0,-1.0,0.0));
#447=DIRECTION('',(0.0,0.0,-1.0));
#448=CARTESIAN_POINT('',(0.0,6.77151202538834,0.0));
#449=DIRECTION('',(0.0,-1.0,0.0));
#450=DIRECTION('',(0.0,0.0,-1.0));
#451=CARTESIAN_POINT('',(1.98035111692611E-14,18.2687398122771,0.0));
#452=DIRECTION('',(0.0,1.0,0.0));
#453=DIRECTION('',(0.0,0.0,1.0));
#454=CARTESIAN_POINT('',(6.5,12.2487398122771,24.0366387001178));
#455=DIRECTION('',(0.0,1.0,0.0));
#456=DIRECTION('',(-1.0,0.0,0.0));
#457=CARTESIAN_POINT('',(0.0,12.2487398122771,0.0));
#458=DIRECTION('',(0.0,-1.0,0.0));
#459=DIRECTION('',(0.0,0.0,-1.0));
#460=DIRECTION('',(6.12303176911189E-17,0.0,-1.0));
#461=CARTESIAN_POINT('',(0.0,12.2487398122771,0.0));
#462=DIRECTION('',(0.0,-1.0,0.0));
#463=DIRECTION('',(0.0,0.0,-1.0));
#464=DIRECTION('',(-6.12303176911189E-17,0.0,1.0));
#465=CARTESIAN_POINT('',(0.0,12.2487398122771,0.0));
#466=DIRECTION('',(0.0,-1.0,0.0));
#467=DIRECTION('',(0.0,0.0,-1.0));
#468=CARTESIAN_POINT('',(0.0,12.2487398122771,0.0));
#469=DIRECTION('',(0.0,-1.0,0.0));
#470=DIRECTION('',(-1.0,0.0,0.0));
#471=CARTESIAN_POINT('',(6.5,10.2487398122771,24.0366387001178));
#472=DIRECTION('',(0.0,1.0,0.0));
#473=DIRECTION('',(0.0,0.0,1.0));
#474=CARTESIAN_POINT('',(0.0,10.2487398122771,0.0));
#475=DIRECTION('',(0.0,1.0,0.0));
#476=DIRECTION('',(0.0,0.0,1.0));
#477=CARTESIAN_POINT('',(0.0,10.2487398122771,0.0));
#478=DIRECTION('',(0.0,1.0,0.0));
#479=DIRECTION('',(0.0,0.0,1.0));
#480=DIRECTION('',(-6.12303176911189E-17,0.0,1.0));
#481=CARTESIAN_POINT('',(0.0,10.2487398122771,0.0));
#482=DIRECTION('',(0.0,1.0,0.0));
#483=DIRECTION('',(0.0,0.0,1.0));
#484=DIRECTION('',(6.12303176911189E-17,0.0,-1.0));
#485=CARTESIAN_POINT('',(0.0,10.2487398122771,0.0));
#486=DIRECTION('',(0.0,1.0,0.0));
#487=DIRECTION('',(0.0,0.0,1.0));
#488=CARTESIAN_POINT('',(0.0,10.2487398122771,0.0));
#489=DIRECTION('',(0.0,1.0,0.0));
#490=DIRECTION('',(0.0,0.0,1.0));
#491=CARTESIAN_POINT('',(4.48394001271953,-4.67402493268905,2.74553071486737E-16));
#492=DIRECTION('',(0.984807753012208,0.17364817766693,6.03000915816144E-17));
#493=DIRECTION('',(0.17364817766693,-0.984807753012208,1.063253308503E-17));
#494=CARTESIAN_POINT('',(-4.48394001271953,-4.67402493268903,-2.74553071486737E-16));
#495=DIRECTION('',(-0.984807753012208,0.17364817766693,-6.03000915816144E-17));
#496=DIRECTION('',(-0.17364817766693,-0.984807753012208,-1.063253308503E-17));
#497=CARTESIAN_POINT('',(-4.81253998597466,48.048933070345,-2.94673352242441E-16));
#498=DIRECTION('',(0.984807753012208,0.173648177666931,6.03000915816144E-17));
#499=DIRECTION('',(-0.17364817766693,0.984807753012208,-1.063253308503E-17));
#500=CARTESIAN_POINT('',(4.81253998597465,48.048933070345,2.94673352242441E-16));
#501=DIRECTION('',(-0.984807753012208,0.173648177666931,-6.03000915816144E-17));
#502=DIRECTION('',(0.17364817766693,0.984807753012208,1.063253308503E-17));
#503=DIRECTION('',(0.0,-1.0,0.0));
ENDSEC;
END-ISO-10303-21;
