ISO-10303-21;
HEADER;
FILE_DESCRIPTION(('STEP AP203'),'1');
FILE_NAME('45 MM.stp','2020-04-17T08:33:38',(' '),(' '),'Spatial InterOp 3D',' ',' ');
FILE_SCHEMA(('CONFIG_CONTROL_DESIGN'));
ENDSEC;
DATA;
#1=DESIGN_CONTEXT('',#33,'design');
#2=APPLICATION_PROTOCOL_DEFINITION('INTERNATIONAL STANDARD','config_control_design',1994,#33);
#3=PRODUCT_CATEGORY_RELATIONSHIP('NONE','NONE',#34,#35);
#4=DATE_AND_TIME(#36,#37);
#5=DATE_TIME_ROLE('creation_date');
#6=DATE_TIME_ROLE('classification_date');
#7=PERSON_AND_ORGANIZATION_ROLE('creator');
#8=PERSON_AND_ORGANIZATION_ROLE('design_supplier');
#9=PERSON_AND_ORGANIZATION_ROLE('classification_officer');
#10=PERSON_AND_ORGANIZATION_ROLE('design_owner');
#11=APPROVAL_PERSON_ORGANIZATION(#38,#39,#40);
#12=APPROVAL_DATE_TIME(#4,#39);
#13=CC_DESIGN_APPROVAL(#39,(#41,#42,#43));
#14=CC_DESIGN_DATE_AND_TIME_ASSIGNMENT(#4,#5,(#43));
#15=CC_DESIGN_DATE_AND_TIME_ASSIGNMENT(#4,#6,(#41));
#16=CC_DESIGN_PERSON_AND_ORGANIZATION_ASSIGNMENT(#38,#10,(#44));
#17=CC_DESIGN_PERSON_AND_ORGANIZATION_ASSIGNMENT(#38,#7,(#43));
#18=CC_DESIGN_PERSON_AND_ORGANIZATION_ASSIGNMENT(#38,#7,(#42));
#19=CC_DESIGN_PERSON_AND_ORGANIZATION_ASSIGNMENT(#38,#8,(#42));
#20=CC_DESIGN_SECURITY_CLASSIFICATION(#41,(#42));
#21=CC_DESIGN_PERSON_AND_ORGANIZATION_ASSIGNMENT(#38,#9,(#41));
#22=SHAPE_DEFINITION_REPRESENTATION(#45,#46);
#23= (GEOMETRIC_REPRESENTATION_CONTEXT(3)GLOBAL_UNCERTAINTY_ASSIGNED_CONTEXT((#49))GLOBAL_UNIT_ASSIGNED_CONTEXT((#51,#52,#53))REPRESENTATION_CONTEXT('NONE','WORKSPACE'));
#24=PROPERTY_DEFINITION_REPRESENTATION(#55,#56);
#25=GENERAL_PROPERTY_ASSOCIATION('','',#57,#55);
#26=PROPERTY_DEFINITION_REPRESENTATION(#58,#59);
#27=GENERAL_PROPERTY_ASSOCIATION('','',#60,#58);
#28=PROPERTY_DEFINITION_REPRESENTATION(#61,#62);
#29=GENERAL_PROPERTY_ASSOCIATION('','',#63,#61);
#33=APPLICATION_CONTEXT('CONFIGURATION CONTROLLED 3D DESIGNS OF MECHANICAL PARTS AND ASSEMBLIES');
#34=PRODUCT_CATEGORY('part','NONE');
#35=PRODUCT_RELATED_PRODUCT_CATEGORY('detail',' ',(#44));
#36=CALENDAR_DATE(2020,17,3);
#37=LOCAL_TIME(10,33,38.0,#64);
#38=PERSON_AND_ORGANIZATION(#65,#66);
#39=APPROVAL(#67,'SOLID MODEL');
#40=APPROVAL_ROLE('APPROVED');
#41=SECURITY_CLASSIFICATION('','',#68);
#42=PRODUCT_DEFINITION_FORMATION_WITH_SPECIFIED_SOURCE('A','NONE',#44,.NOT_KNOWN.);
#43=PRODUCT_DEFINITION('','NONE',#42,#1);
#44=PRODUCT('UFO ZOOM PMMA \X2\00D8\X0\45 MM','X73969','UFO 45Z',(#69));
#45=PRODUCT_DEFINITION_SHAPE('NONE','NONE',#43);
#46=ADVANCED_BREP_SHAPE_REPRESENTATION('1',(#70,#71),#23);
#49=UNCERTAINTY_MEASURE_WITH_UNIT(LENGTH_MEASURE(0.001),#51,'','');
#51= (CONVERSION_BASED_UNIT('MILLIMETRE',#74)LENGTH_UNIT()NAMED_UNIT(#77));
#52= (NAMED_UNIT(#79)PLANE_ANGLE_UNIT()SI_UNIT($,.RADIAN.));
#53= (NAMED_UNIT(#79)SOLID_ANGLE_UNIT()SI_UNIT($,.STERADIAN.));
#55=PROPERTY_DEFINITION('PdmObjectId','',#43);
#56=REPRESENTATION('',(#85),#23);
#57=GENERAL_PROPERTY('','19_357a5e44-f5e9-4d92-8c05-5830676b3463&5_504_0_18','');
#58=PROPERTY_DEFINITION('CreationDate','',#43);
#59=REPRESENTATION('',(#86),#23);
#60=GENERAL_PROPERTY('','05/11/2019 15:59:49','');
#61=PROPERTY_DEFINITION('Minor Revision','',#43);
#62=REPRESENTATION('',(#87),#23);
#63=GENERAL_PROPERTY('','1','');
#64=COORDINATED_UNIVERSAL_TIME_OFFSET(1,0,.AHEAD.);
#65=PERSON('','UNSPECIFIED',$,$,$,$);
#66=ORGANIZATION('UNSPECIFIED','UNSPECIFIED','UNSPECIFIED');
#67=APPROVAL_STATUS('approved');
#68=SECURITY_CLASSIFICATION_LEVEL('unclassified');
#69=MECHANICAL_CONTEXT('',#33,'mechanical');
#70=MANIFOLD_SOLID_BREP('1',#88);
#71=AXIS2_PLACEMENT_3D('',#89,#90,#91);
#74=LENGTH_MEASURE_WITH_UNIT(LENGTH_MEASURE(1.0),#92);
#77=DIMENSIONAL_EXPONENTS(1.0,0.0,0.0,0.0,0.0,0.0,0.0);
#79=DIMENSIONAL_EXPONENTS(0.0,0.0,0.0,0.0,0.0,0.0,0.0);
#85=DESCRIPTIVE_REPRESENTATION_ITEM('','19_357a5e44-f5e9-4d92-8c05-5830676b3463&5_504_0_18');
#86=DESCRIPTIVE_REPRESENTATION_ITEM('','05/11/2019 15:59:49');
#87=DESCRIPTIVE_REPRESENTATION_ITEM('','1');
#88=CLOSED_SHELL('',(#93,#94,#95,#96,#97,#98,#99,#100,#101,#102,#103,#104));
#89=CARTESIAN_POINT('',(0.0,0.0,0.0));
#90=DIRECTION('',(0.0,0.0,1.0));
#91=DIRECTION('',(1.0,0.0,0.0));
#92= (NAMED_UNIT(#77)LENGTH_UNIT()SI_UNIT(.MILLI.,.METRE.));
#93=ADVANCED_FACE('',(#106,#107),#108,.T.);
#94=ADVANCED_FACE('',(#109),#110,.T.);
#95=ADVANCED_FACE('',(#111),#112,.F.);
#96=ADVANCED_FACE('',(#113,#114),#115,.F.);
#97=ADVANCED_FACE('',(#116),#117,.T.);
#98=ADVANCED_FACE('',(#118,#119),#120,.T.);
#99=ADVANCED_FACE('',(#121),#122,.F.);
#100=ADVANCED_FACE('',(#123),#124,.F.);
#101=ADVANCED_FACE('',(#125,#126),#127,.F.);
#102=ADVANCED_FACE('',(#128,#129),#130,.F.);
#103=ADVANCED_FACE('',(#131),#132,.F.);
#104=ADVANCED_FACE('',(#133),#134,.F.);
#106=FACE_BOUND('',#135,.T.);
#107=FACE_OUTER_BOUND('',#136,.T.);
#108=CONICAL_SURFACE('',#137,21.91,0.606861314922827);
#109=FACE_OUTER_BOUND('',#138,.T.);
#110=CONICAL_SURFACE('',#139,22.0499999924188,0.0349065850398857);
#111=FACE_OUTER_BOUND('',#140,.T.);
#112=PLANE('',#141);
#113=FACE_BOUND('',#142,.T.);
#114=FACE_OUTER_BOUND('',#143,.T.);
#115=PLANE('',#144);
#116=FACE_OUTER_BOUND('',#145,.T.);
#117=CONICAL_SURFACE('',#146,23.0499999924188,0.0349065850398857);
#118=FACE_OUTER_BOUND('',#147,.T.);
#119=FACE_BOUND('',#148,.T.);
#120=CONICAL_SURFACE('',#149,22.0499999924188,0.0349065850398857);
#121=FACE_OUTER_BOUND('',#150,.T.);
#122=PLANE('',#151);
#123=FACE_OUTER_BOUND('',#152,.T.);
#124=PLANE('',#153);
#125=FACE_BOUND('',#154,.T.);
#126=FACE_OUTER_BOUND('',#155,.T.);
#127=PLANE('',#156);
#128=FACE_BOUND('',#157,.T.);
#129=FACE_OUTER_BOUND('',#158,.T.);
#130=CONICAL_SURFACE('',#159,7.18594031631746,0.960667131102266);
#131=FACE_OUTER_BOUND('',#160,.T.);
#132=PLANE('',#161);
#133=FACE_OUTER_BOUND('',#162,.T.);
#134=PLANE('',#163);
#135=EDGE_LOOP('',(#164));
#136=EDGE_LOOP('',(#165));
#137=AXIS2_PLACEMENT_3D('',#166,#167,#168);
#138=EDGE_LOOP('',(#169,#170,#171,#172));
#139=AXIS2_PLACEMENT_3D('',#173,#174,#175);
#140=EDGE_LOOP('',(#176,#177,#178,#179));
#141=AXIS2_PLACEMENT_3D('',#180,#181,#182);
#142=EDGE_LOOP('',(#183));
#143=EDGE_LOOP('',(#184,#185,#186,#187));
#144=AXIS2_PLACEMENT_3D('',#188,#189,#190);
#145=EDGE_LOOP('',(#191,#192,#193,#194));
#146=AXIS2_PLACEMENT_3D('',#195,#196,#197);
#147=EDGE_LOOP('',(#198,#199));
#148=EDGE_LOOP('',(#200));
#149=AXIS2_PLACEMENT_3D('',#201,#202,#203);
#150=EDGE_LOOP('',(#204,#205,#206,#207));
#151=AXIS2_PLACEMENT_3D('',#208,#209,#210);
#152=EDGE_LOOP('',(#211,#212,#213,#214));
#153=AXIS2_PLACEMENT_3D('',#215,#216,#217);
#154=EDGE_LOOP('',(#218));
#155=EDGE_LOOP('',(#219));
#156=AXIS2_PLACEMENT_3D('',#220,#221,#222);
#157=EDGE_LOOP('',(#223));
#158=EDGE_LOOP('',(#224));
#159=AXIS2_PLACEMENT_3D('',#225,#226,#227);
#160=EDGE_LOOP('',(#228));
#161=AXIS2_PLACEMENT_3D('',#229,#230,#231);
#162=EDGE_LOOP('',(#232));
#163=AXIS2_PLACEMENT_3D('',#233,#234,#235);
#164=ORIENTED_EDGE('',*,*,#236,.F.);
#165=ORIENTED_EDGE('',*,*,#237,.T.);
#166=CARTESIAN_POINT('',(0.0,10.2487398120594,0.0));
#167=DIRECTION('',(-0.0,1.0,-0.0));
#168=DIRECTION('',(0.0,0.0,1.0));
#169=ORIENTED_EDGE('',*,*,#238,.F.);
#170=ORIENTED_EDGE('',*,*,#239,.F.);
#171=ORIENTED_EDGE('',*,*,#240,.T.);
#172=ORIENTED_EDGE('',*,*,#241,.T.);
#173=CARTESIAN_POINT('',(0.0,12.2487398120594,0.0));
#174=DIRECTION('',(-0.0,1.0,-0.0));
#175=DIRECTION('',(0.0,0.0,1.0));
#176=ORIENTED_EDGE('',*,*,#242,.F.);
#177=ORIENTED_EDGE('',*,*,#243,.T.);
#178=ORIENTED_EDGE('',*,*,#244,.F.);
#179=ORIENTED_EDGE('',*,*,#245,.F.);
#180=CARTESIAN_POINT('',(-22.5499999924188,12.2487398120594,0.0));
#181=DIRECTION('',(0.0,-1.0,0.0));
#182=DIRECTION('',(0.0,0.0,-1.0));
#183=ORIENTED_EDGE('',*,*,#237,.F.);
#184=ORIENTED_EDGE('',*,*,#238,.T.);
#185=ORIENTED_EDGE('',*,*,#246,.T.);
#186=ORIENTED_EDGE('',*,*,#247,.T.);
#187=ORIENTED_EDGE('',*,*,#248,.T.);
#188=CARTESIAN_POINT('',(-21.9764999948448,10.2487398120594,0.0));
#189=DIRECTION('',(0.0,1.0,0.0));
#190=DIRECTION('',(0.0,0.0,1.0));
#191=ORIENTED_EDGE('',*,*,#249,.F.);
#192=ORIENTED_EDGE('',*,*,#245,.T.);
#193=ORIENTED_EDGE('',*,*,#250,.F.);
#194=ORIENTED_EDGE('',*,*,#247,.F.);
#195=CARTESIAN_POINT('',(0.0,12.2487398120594,0.0));
#196=DIRECTION('',(-0.0,1.0,-0.0));
#197=DIRECTION('',(0.0,0.0,1.0));
#198=ORIENTED_EDGE('',*,*,#243,.F.);
#199=ORIENTED_EDGE('',*,*,#240,.F.);
#200=ORIENTED_EDGE('',*,*,#251,.T.);
#201=CARTESIAN_POINT('',(0.0,12.2487398120594,0.0));
#202=DIRECTION('',(-0.0,-1.0,0.0));
#203=DIRECTION('',(0.0,0.0,1.0));
#204=ORIENTED_EDGE('',*,*,#249,.T.);
#205=ORIENTED_EDGE('',*,*,#246,.F.);
#206=ORIENTED_EDGE('',*,*,#241,.F.);
#207=ORIENTED_EDGE('',*,*,#242,.T.);
#208=CARTESIAN_POINT('',(1.5,12.2487398120594,-1.47258914000721E-15));
#209=DIRECTION('',(0.984807753012208,0.17364817766693,-6.03000915816144E-17));
#210=DIRECTION('',(-0.17364817766693,0.984807753012208,0.0));
#211=ORIENTED_EDGE('',*,*,#250,.T.);
#212=ORIENTED_EDGE('',*,*,#244,.T.);
#213=ORIENTED_EDGE('',*,*,#239,.T.);
#214=ORIENTED_EDGE('',*,*,#248,.F.);
#215=CARTESIAN_POINT('',(-1.5,12.2487398120594,-1.28889818693385E-15));
#216=DIRECTION('',(-0.984807753012208,0.17364817766693,6.03000915816144E-17));
#217=DIRECTION('',(-0.17364817766693,-0.984807753012208,0.0));
#218=ORIENTED_EDGE('',*,*,#252,.F.);
#219=ORIENTED_EDGE('',*,*,#236,.T.);
#220=CARTESIAN_POINT('',(-13.340924980276,6.77151202520755,0.0));
#221=DIRECTION('',(0.0,1.0,0.0));
#222=DIRECTION('',(0.0,0.0,1.0));
#223=ORIENTED_EDGE('',*,*,#253,.F.);
#224=ORIENTED_EDGE('',*,*,#252,.T.);
#225=CARTESIAN_POINT('',(0.0,6.77151202520755,0.0));
#226=DIRECTION('',(0.0,-1.0,-0.0));
#227=DIRECTION('',(0.0,0.0,-1.0));
#228=ORIENTED_EDGE('',*,*,#253,.T.);
#229=CARTESIAN_POINT('',(-3.49297015815873,6.91133426237317,0.0));
#230=DIRECTION('',(0.0,1.0,0.0));
#231=DIRECTION('',(0.0,0.0,1.0));
#232=ORIENTED_EDGE('',*,*,#251,.F.);
#233=CARTESIAN_POINT('',(-10.9726188419718,14.7687398120594,0.0));
#234=DIRECTION('',(0.0,-1.0,0.0));
#235=DIRECTION('',(0.0,0.0,-1.0));
#236=EDGE_CURVE('',#254,#254,#255,.T.);
#237=EDGE_CURVE('',#256,#256,#257,.T.);
#238=EDGE_CURVE('',#258,#259,#260,.F.);
#239=EDGE_CURVE('',#261,#258,#262,.T.);
#240=EDGE_CURVE('',#261,#263,#264,.T.);
#241=EDGE_CURVE('',#263,#259,#265,.F.);
#242=EDGE_CURVE('',#263,#266,#267,.F.);
#243=EDGE_CURVE('',#263,#261,#268,.T.);
#244=EDGE_CURVE('',#269,#261,#270,.F.);
#245=EDGE_CURVE('',#266,#269,#271,.T.);
#246=EDGE_CURVE('',#259,#272,#273,.F.);
#247=EDGE_CURVE('',#272,#274,#275,.F.);
#248=EDGE_CURVE('',#274,#258,#276,.F.);
#249=EDGE_CURVE('',#266,#272,#277,.F.);
#250=EDGE_CURVE('',#274,#269,#278,.F.);
#251=EDGE_CURVE('',#279,#279,#280,.T.);
#252=EDGE_CURVE('',#281,#281,#282,.T.);
#253=EDGE_CURVE('',#283,#283,#284,.T.);
#254=VERTEX_POINT('',#285);
#255=CIRCLE('',#286,19.4959096442346);
#256=VERTEX_POINT('',#287);
#257=B_SPLINE_CURVE_WITH_KNOTS('',3,(#288,#289,#290,#291,#292,#293,#294,#295,#296,#297,#298,#299,#300,#301,#302,#303,#304,#305,#306,#307,#308,#309,#310,#311,#312,#313,#314,#315,#316,#317,#318,#319,#320,#321,#322,#323,#324,#325,#326,#327,#328,#329,#330,#331,#332,#333,#334,#335,#336,#337,#338,#339,#340,#341,#342,#343,#344,#345,#346,#347,#348,#349,#350,#351,#352,#353),.UNSPECIFIED.,.T.,.F.,(2,2,2,2,2,2,2,2,2,2,2,2,2,2,2,2,2,2,2,2,2,2,2,2,2,2,2,2,2,2,2,2,2,2,2),(-0.03125,0.0,0.03125,0.0625,0.09375,0.125,0.15625,0.1875,0.21875,0.25,0.28125,0.3125,0.34375,0.375,0.40625,0.4375,0.46875,0.5,0.53125,0.5625,0.59375,0.625,0.65625,0.6875,0.71875,0.75,0.78125,0.8125,0.84375,0.875,0.90625,0.9375,0.96875,1.0,1.03125),.UNSPECIFIED.);
#258=VERTEX_POINT('',#354);
#259=VERTEX_POINT('',#355);
#260=CIRCLE('',#356,21.9801584534353);
#261=VERTEX_POINT('',#357);
#262=ELLIPSE('',#358,133.945241480186,22.79864508202);
#263=VERTEX_POINT('',#359);
#264=CIRCLE('',#360,22.0499999924188);
#265=ELLIPSE('',#361,133.945241480186,22.79864508202);
#266=VERTEX_POINT('',#362);
#267=LINE('',#363,#364);
#268=CIRCLE('',#365,22.0499999924188);
#269=VERTEX_POINT('',#366);
#270=LINE('',#367,#368);
#271=CIRCLE('',#369,23.0499999924188);
#272=VERTEX_POINT('',#370);
#273=LINE('',#371,#372);
#274=VERTEX_POINT('',#373);
#275=CIRCLE('',#374,22.9801584534353);
#276=LINE('',#375,#376);
#277=ELLIPSE('',#377,139.939103395364,23.8188525112999);
#278=ELLIPSE('',#378,139.939103395364,23.8188525112999);
#279=VERTEX_POINT('',#379);
#280=CIRCLE('',#380,21.9619996532996);
#281=VERTEX_POINT('',#381);
#282=CIRCLE('',#382,7.18594031631746);
#283=VERTEX_POINT('',#383);
#284=CIRCLE('',#384,6.98594031631746);
#285=CARTESIAN_POINT('',(0.0,6.77151202520755,-19.4959096442346));
#286=AXIS2_PLACEMENT_3D('',#385,#386,#387);
#287=CARTESIAN_POINT('',(8.77076189453874E-15,10.2487398120594,-21.91));
#288=CARTESIAN_POINT('',(-1.43400614666983,10.2487398120594,-21.91));
#289=CARTESIAN_POINT('',(1.43400614666985,10.2487398120594,-21.91));
#290=CARTESIAN_POINT('',(2.86797683471187,10.2487398120594,-21.7687662145617));
#291=CARTESIAN_POINT('',(5.68088107603494,10.2487398120594,-21.2092447727079));
#292=CARTESIAN_POINT('',(7.05974507471548,10.2487398120594,-20.7909709515625));
#293=CARTESIAN_POINT('',(9.70944293152278,10.2487398120594,-19.693430163082));
#294=CARTESIAN_POINT('',(10.9802112706485,10.2487398120594,-19.0141903346057));
#295=CARTESIAN_POINT('',(13.3648763402705,10.2487398120594,-17.4208080764919));
#296=CARTESIAN_POINT('',(14.4787141052238,10.2487398120594,-16.5067050463707));
#297=CARTESIAN_POINT('',(16.5067050463707,10.2487398120594,-14.4787141052238));
#298=CARTESIAN_POINT('',(17.4208080764919,10.2487398120594,-13.3648763402705));
#299=CARTESIAN_POINT('',(19.0141903346057,10.2487398120594,-10.9802112706484));
#300=CARTESIAN_POINT('',(19.693430163082,10.2487398120594,-9.70944293152276));
#301=CARTESIAN_POINT('',(20.7909709515625,10.2487398120594,-7.05974507471548));
#302=CARTESIAN_POINT('',(21.2092447727079,10.2487398120594,-5.68088107603493));
#303=CARTESIAN_POINT('',(21.7687662145617,10.2487398120594,-2.86797683471185));
#304=CARTESIAN_POINT('',(21.91,10.2487398120594,-1.43400614666985));
#305=CARTESIAN_POINT('',(21.91,10.2487398120594,1.43400614666983));
#306=CARTESIAN_POINT('',(21.7687662145617,10.2487398120594,2.86797683471183));
#307=CARTESIAN_POINT('',(21.2092447727079,10.2487398120594,5.6808810760349));
#308=CARTESIAN_POINT('',(20.7909709515625,10.2487398120594,7.05974507471545));
#309=CARTESIAN_POINT('',(19.6934301630821,10.2487398120594,9.70944293152274));
#310=CARTESIAN_POINT('',(19.0141903346057,10.2487398120594,10.9802112706484));
#311=CARTESIAN_POINT('',(17.4208080764919,10.2487398120594,13.3648763402705));
#312=CARTESIAN_POINT('',(16.5067050463707,10.2487398120594,14.4787141052238));
#313=CARTESIAN_POINT('',(14.4787141052238,10.2487398120594,16.5067050463707));
#314=CARTESIAN_POINT('',(13.3648763402705,10.2487398120594,17.4208080764919));
#315=CARTESIAN_POINT('',(10.9802112706485,10.2487398120594,19.0141903346057));
#316=CARTESIAN_POINT('',(9.70944293152276,10.2487398120594,19.693430163082));
#317=CARTESIAN_POINT('',(7.05974507471548,10.2487398120594,20.7909709515625));
#318=CARTESIAN_POINT('',(5.68088107603492,10.2487398120594,21.2092447727078));
#319=CARTESIAN_POINT('',(2.86797683471185,10.2487398120594,21.7687662145617));
#320=CARTESIAN_POINT('',(1.43400614666985,10.2487398120594,21.91));
#321=CARTESIAN_POINT('',(-1.43400614666983,10.2487398120594,21.91));
#322=CARTESIAN_POINT('',(-2.8679768347118,10.2487398120594,21.7687662145617));
#323=CARTESIAN_POINT('',(-5.68088107603487,10.2487398120594,21.2092447727079));
#324=CARTESIAN_POINT('',(-7.05974507471545,10.2487398120594,20.7909709515625));
#325=CARTESIAN_POINT('',(-9.70944293152274,10.2487398120594,19.6934301630821));
#326=CARTESIAN_POINT('',(-10.9802112706484,10.2487398120594,19.0141903346057));
#327=CARTESIAN_POINT('',(-13.3648763402705,10.2487398120594,17.4208080764919));
#328=CARTESIAN_POINT('',(-14.4787141052238,10.2487398120594,16.5067050463707));
#329=CARTESIAN_POINT('',(-16.5067050463707,10.2487398120594,14.4787141052238));
#330=CARTESIAN_POINT('',(-17.4208080764918,10.2487398120594,13.3648763402705));
#331=CARTESIAN_POINT('',(-19.0141903346057,10.2487398120594,10.9802112706485));
#332=CARTESIAN_POINT('',(-19.693430163082,10.2487398120594,9.70944293152278));
#333=CARTESIAN_POINT('',(-20.7909709515625,10.2487398120594,7.0597450747155));
#334=CARTESIAN_POINT('',(-21.2092447727078,10.2487398120594,5.68088107603493));
#335=CARTESIAN_POINT('',(-21.7687662145617,10.2487398120594,2.86797683471186));
#336=CARTESIAN_POINT('',(-21.91,10.2487398120594,1.43400614666986));
#337=CARTESIAN_POINT('',(-21.91,10.2487398120594,-1.4340061466698));
#338=CARTESIAN_POINT('',(-21.7687662145617,10.2487398120594,-2.86797683471178));
#339=CARTESIAN_POINT('',(-21.2092447727079,10.2487398120594,-5.68088107603486));
#340=CARTESIAN_POINT('',(-20.7909709515626,10.2487398120594,-7.05974507471543));
#341=CARTESIAN_POINT('',(-19.6934301630821,10.2487398120594,-9.70944293152272));
#342=CARTESIAN_POINT('',(-19.0141903346057,10.2487398120594,-10.9802112706484));
#343=CARTESIAN_POINT('',(-17.4208080764919,10.2487398120594,-13.3648763402705));
#344=CARTESIAN_POINT('',(-16.5067050463707,10.2487398120594,-14.4787141052238));
#345=CARTESIAN_POINT('',(-14.4787141052239,10.2487398120594,-16.5067050463707));
#346=CARTESIAN_POINT('',(-13.3648763402706,10.2487398120594,-17.4208080764918));
#347=CARTESIAN_POINT('',(-10.9802112706485,10.2487398120594,-19.0141903346056));
#348=CARTESIAN_POINT('',(-9.7094429315228,10.2487398120594,-19.693430163082));
#349=CARTESIAN_POINT('',(-7.05974507471552,10.2487398120594,-20.7909709515625));
#350=CARTESIAN_POINT('',(-5.68088107603495,10.2487398120594,-21.2092447727078));
#351=CARTESIAN_POINT('',(-2.86797683471188,10.2487398120594,-21.7687662145617));
#352=CARTESIAN_POINT('',(-1.43400614666983,10.2487398120594,-21.91));
#353=CARTESIAN_POINT('',(1.43400614666985,10.2487398120594,-21.91));
#354=CARTESIAN_POINT('',(-1.85265396141693,10.2487398120594,-21.9019414421957));
#355=CARTESIAN_POINT('',(1.85265396141693,10.2487398120594,-21.9019414421957));
#356=AXIS2_PLACEMENT_3D('',#388,#389,#390);
#357=CARTESIAN_POINT('',(-1.4999999999998,12.2487398120606,-21.9989204204586));
#358=AXIS2_PLACEMENT_3D('',#391,#392,#393);
#359=CARTESIAN_POINT('',(1.5,12.2487398120594,-21.9989204204585));
#360=AXIS2_PLACEMENT_3D('',#394,#395,#396);
#361=AXIS2_PLACEMENT_3D('',#397,#398,#399);
#362=CARTESIAN_POINT('',(1.5,12.2487398120594,-23.0011412684351));
#363=CARTESIAN_POINT('',(1.5,12.2487398120594,-1.47258914000721E-15));
#364=VECTOR('',#400,1.0);
#365=AXIS2_PLACEMENT_3D('',#401,#402,#403);
#366=CARTESIAN_POINT('',(-1.5,12.2487398120594,-23.0011412684351));
#367=CARTESIAN_POINT('',(-1.5,12.2487398120594,-1.28889818693385E-15));
#368=VECTOR('',#404,1.0);
#369=AXIS2_PLACEMENT_3D('',#405,#406,#407);
#370=CARTESIAN_POINT('',(1.85265396141693,10.2487398120594,-22.905356488041));
#371=CARTESIAN_POINT('',(1.85265396141693,10.2487398120594,-1.4941822540998E-15));
#372=VECTOR('',#408,1.0);
#373=CARTESIAN_POINT('',(-1.85265396141693,10.2487398120594,-22.905356488041));
#374=AXIS2_PLACEMENT_3D('',#409,#410,#411);
#375=CARTESIAN_POINT('',(-1.85265396141693,10.2487398120594,-1.26730507284126E-15));
#376=VECTOR('',#412,1.0);
#377=AXIS2_PLACEMENT_3D('',#413,#414,#415);
#378=AXIS2_PLACEMENT_3D('',#416,#417,#418);
#379=CARTESIAN_POINT('',(0.0,14.7687398120594,-21.9619996532996));
#380=AXIS2_PLACEMENT_3D('',#419,#420,#421);
#381=CARTESIAN_POINT('',(0.0,6.77151202520755,-7.18594031631746));
#382=AXIS2_PLACEMENT_3D('',#422,#423,#424);
#383=CARTESIAN_POINT('',(0.0,6.91133426237317,-6.98594031631746));
#384=AXIS2_PLACEMENT_3D('',#425,#426,#427);
#385=CARTESIAN_POINT('',(0.0,6.77151202520755,0.0));
#386=DIRECTION('',(0.0,-1.0,0.0));
#387=DIRECTION('',(0.0,0.0,-1.0));
#388=CARTESIAN_POINT('',(0.0,10.2487398120594,0.0));
#389=DIRECTION('',(0.0,1.0,0.0));
#390=DIRECTION('',(0.0,0.0,1.0));
#391=CARTESIAN_POINT('',(4.60640960902092,46.8799096108386,-2.82051923775773E-16));
#392=DIRECTION('',(-0.984807753012208,0.17364817766693,6.03000915816144E-17));
#393=DIRECTION('',(0.173648177666931,0.984807753012208,-1.063253308503E-17));
#394=CARTESIAN_POINT('',(0.0,12.2487398120594,0.0));
#395=DIRECTION('',(0.0,-1.0,0.0));
#396=DIRECTION('',(-1.0,0.0,0.0));
#397=CARTESIAN_POINT('',(-4.60640960902092,46.8799096108386,2.82051923775773E-16));
#398=DIRECTION('',(0.984807753012208,0.17364817766693,-6.03000915816144E-17));
#399=DIRECTION('',(-0.173648177666931,0.984807753012208,1.063253308503E-17));
#400=DIRECTION('',(6.12303176911189E-17,0.0,1.0));
#401=CARTESIAN_POINT('',(0.0,12.2487398120594,0.0));
#402=DIRECTION('',(0.0,-1.0,0.0));
#403=DIRECTION('',(0.0,0.0,-1.0));
#404=DIRECTION('',(-6.12303176911189E-17,0.0,-1.0));
#405=CARTESIAN_POINT('',(0.0,12.2487398120594,0.0));
#406=DIRECTION('',(0.0,-1.0,0.0));
#407=DIRECTION('',(0.0,0.0,-1.0));
#408=DIRECTION('',(6.12303176911189E-17,0.0,1.0));
#409=CARTESIAN_POINT('',(0.0,10.2487398120594,0.0));
#410=DIRECTION('',(0.0,1.0,0.0));
#411=DIRECTION('',(0.0,0.0,1.0));
#412=DIRECTION('',(-6.12303176911189E-17,0.0,-1.0));
#413=CARTESIAN_POINT('',(-4.81253998600264,48.048933070286,2.94673352244154E-16));
#414=DIRECTION('',(0.984807753012208,0.17364817766693,-6.03000915816144E-17));
#415=DIRECTION('',(-0.17364817766693,0.984807753012208,1.063253308503E-17));
#416=CARTESIAN_POINT('',(4.81253998600264,48.048933070286,-2.94673352244154E-16));
#417=DIRECTION('',(-0.984807753012208,0.17364817766693,6.03000915816144E-17));
#418=DIRECTION('',(0.17364817766693,0.984807753012208,-1.063253308503E-17));
#419=CARTESIAN_POINT('',(0.0,14.7687398120594,0.0));
#420=DIRECTION('',(0.0,-1.0,0.0));
#421=DIRECTION('',(0.0,0.0,-1.0));
#422=CARTESIAN_POINT('',(0.0,6.77151202520755,0.0));
#423=DIRECTION('',(0.0,-1.0,0.0));
#424=DIRECTION('',(0.0,0.0,-1.0));
#425=CARTESIAN_POINT('',(0.0,6.91133426237317,0.0));
#426=DIRECTION('',(0.0,-1.0,0.0));
#427=DIRECTION('',(0.0,0.0,-1.0));
ENDSEC;
END-ISO-10303-21;
